PrimaNota.ru - самый крупный в мире бесплатный архив песенных текстов, аккордов, табулатур и нот


Rebelution - Destress - таба, видео

Регистрация Запомнить меня
Войти через:  Facebook Google Twitter Vk Yandex Mail.ru

Rebelution - Destress - таба, видео

Печатать
Просмотров: 168
Уроки эстрадного вокала в Санкт-Петербурге
-------------------------------------------------------------------------------
                             Destress - Rebelution
-------------------------------------------------------------------------------
Tabbed by: Tyler Bowles
E-mail: tibblesnbits513@yahoo.com

Tuning: standard
 intro
e|---------13/-----------------------(1)-(1)------1--------------------------|
B|--10-10---------6--4------------------------6/----4-2-1--------------------|
G|---------------------6-5----- OR ------------------------------------------|
D|--------------------------------------3-3----------------------------------|
A|---------------------------------------------------------------------------|
E|---------------------------------------------------------------------------|

e|---------------------------------------------------------------------------|
B|---------------------------2---5-6-----------------------------------------|
G|--3-6-5-9-10------ OR ---3---5---------------------------------------------|
D|---------------------------------------------------------------------------|
A|---------------------------------------------------------------------------|
E|---------------------------------------------------------------------------|

   Fm   A#m
e|--1----1--------------|
B|--1----2--------------|
G|--1----3--------------|
D|--3----3--------------|
A|--3----1--------------|
E|--1----x--------------|

  Bass
e|---------------------------------------------------------------------------|
B|---------------------------------------------------------------------------|
G|---------------------------------------------------------------------------|
D|---------------------------------------------------------------------------|
A|--------1--1--------------1--1---------------------------------------------|
E|-1--1-4------4--1-1-1-1-4------4-1-----------------------------------------|

 Bridge
e|---------------------------------------------------------------------------|
B|---------------------------------------------------------------------------|
G|-------5--3--3-3-3p1---------1h3-3-3p1-------------------------------------|
D|--3-3----------------3--3-3------------3-3---------------------------------|
A|---------------------------------------------------------------------------|
E|---------------------------------------------------------------------------|

after solo
e|--------------------------|
B|------6-------------------|
G|--------3-5-6-8-10--------|
D|-3-3----------------------|
A|--------------------------|
E|--------------------------|




************************************

| /   slide up
| \   slide down
| h   hammer-on
| p   pull-off
| ~   vibrato
| +   harmonic
| x   Mute note
| b   Bend
| pb  Pre-bend
| br  Bend release
| pbr Pre-bend release
| brb Bend release bend

************************************
Добавлено: 03.09.2015
Другие материалы по этой песне:
  • Аккорды и текст

Страница создана 03.09.2015
http://primanota.ru/rebelution/destress-chords.htm
Привет, Гость.
Предлагаем пройти революционный курс по гитаре.
Подарок от PrimaNota.Ru, забирай!