PrimaNota.ru - самый крупный в мире бесплатный архив песенных текстов, аккордов, табулатур и нот


Rebelution - De-stress - бас-таба, видео

Регистрация Запомнить меня
Войти через:  Facebook Google Twitter Vk Yandex Mail.ru

Rebelution - De-stress - бас-таба, видео

Печатать
Просмотров: 135
Tabbed By: michaeljtomey
Email me for any questions at michaeljtomey@gmail.com



De-Stress
Rebelution

     S S E   Q     S E  E  E.     S S E   Q     S E  E  E.     S S E   Q     S E  E  E.     H        H         
G||----------------------------|----------------------------|----------------------------|------------------|
D||--3-3----15\----3-----------|--3-3----15\----3-----------|--3-3----15\----3-----------|------------------|
A||------------------6--4--3---|------------------6--4--3---|------------------6--4--3---|--1--------3------|
E||----------------------------|----------------------------|----------------------------|------------------|
 
 
     Q    E  E  Q    E  E     Q    E  E  S S S E  S E    
G||------------------------|---------------------------||
D||------------------------|---------------------------||
A||-------------1----1-----|-------------1-1---1--1----||
E||--1----1--4----------4--|--1----1--4-------------4--||
 


Duration Legend
---------------
W - whole
H - half
Q - quarter
E - 8th
S - 16th
T - 32nd
X - 64th
. - note dotted
|-n-|  - n-tuplets
 
 
Tablature Legend
----------------
L - tied note
x - dead note
g - grace note
(n) - ghost note
> - accentuded note
NH - natural harmonic
AH - artificial harmonic
TH - tapped harmonic
SH - semi harmonic
PH - pitch harmonic
h - hammer on
p - pull off
b - bend
br - bendRelease
pb - preBend
pbr - preBendRelease
brb - bendReleaseBend
\n/ - tremolo bar dip
\n - tremolo bar dive
-/n - tremolo bar Release up
/n\ - tremolo bar inverted dip
/n - tremolo bar return
-\n - tremolo bar Release down
S - shift slide
s - legato slide
/ -  slide into from below or out of upwards
\ -  slide into from above or out of downwards
~ - vibrato
W - wide vibrato
tr - tril'
TP - tremolo picking
T - tapping
S - slap
P - pop
< - fade in
^ - brush up
v - brush down
Добавлено: 31.07.2015
Другие материалы по этой песне:
  • Аккорды и текст

Страница создана 31.07.2015
http://primanota.ru/rebelution/de-stress-chords.htm
Привет, Гость.
Предлагаем пройти революционный курс по гитаре.
Подарок от PrimaNota.Ru, забирай!