PrimaNota.ru - самый крупный в мире бесплатный архив песенных текстов, аккордов, табулатур и нот


Rebelution - Counterfeit Love - таба, бас-таба, видео

Регистрация Запомнить меня
Войти через:  Facebook Google Twitter Vk Yandex Mail.ru

Rebelution - Counterfeit Love - таба, бас-таба, видео

Печатать
Просмотров: 59
-------------------------------------------------------------------------------
                             Counterfeit Love - Rebelution
-------------------------------------------------------------------------------
Tabbed by: badfish_lewis
E-mail:

Tuning: Standard

Remember, reggae is played with down strokes, not upstrokes

e|---5---5-----------3---3---7---7-------------------------------------------|
B|---5---5---7---7---3---3---8---8-------------------------------------------|
G|---5---5---7---7---4---4---7---7-------------------------------------------|
D|---7---7---7---7---5---5---9---9-------------------------------------------|
A|---7---7---5---5---5---5---7---7-------------------------------------------|
E|---------------------------------------------------------------------------|

e|---15--15--15--10--10--10--5--5--5--5--3-3--5--3---------------------------|
B|---17--17--17--12--12--12--7--7--7--5--3-3--------5-h3\1p0-----------------|
G|---16--16--16--11--11--11--7--7--7-------------------------2/4--4----------|
D|---------------------------------------------------------------------------|
A|---------------------------------------------------------------------------|
E|---------------------------------------------------------------------------|




************************************

| /   slide up
| \   slide down
| h   hammer-on
| p   pull-off
| ~   vibrato
| +   harmonic
| x   Mute note
| b   Bend
| pb  Pre-bend
| br  Bend release
| pbr Pre-bend release
| brb Bend release bend

************************************
Добавлено: 19.09.2014
Другие материалы по этой песне:
  • Аккорды и текст

Страница создана 19.09.2014
http://primanota.ru/rebelution/counterfeit-love-chords.htm
Привет, Гость.
Предлагаем пройти революционный курс по гитаре.
Подарок от PrimaNota.Ru, забирай!