PrimaNota.ru - самый крупный в мире бесплатный архив песенных текстов, аккордов, табулатур и нот


Rebecca Sugar - Ste-ste-ste-steven Big Fat Zucchini - таба, видео

Регистрация Запомнить меня
Войти через:  Facebook Google Twitter Vk Yandex Mail.ru

Rebecca Sugar - Ste-ste-ste-steven Big Fat Zucchini - таба, видео

Печатать
Просмотров: 253
Уроки эстрадного вокала в Санкт-Петербурге
e|---------------------------------------------------|
B|---------------------------------------------------|
G|---------------------------------------------------|
D|---------------------------------------------------|
A|---------------------------------------------------|
E|-\-\-/---------------------------------------------|


Steven! Ste-Ste-Ste Steven!
Ste-Ste-Ste Steven!
Ste-Ste-Ste Steven!
Ste-Ste-Ste!

e|---------------------------------------------------| X4
B|---------------------------------------------------|
G|---------------------------------------------------|
D|------------------5--5--5--------------------------|
A|-5-5-5-5-5-5-5-5--3--3--3--------------------------|
E|-3-3-3-3-3-3-3-3-----------------------------------|





1,2,3,4!
Steven's a big fat meanie,

e|---------------------------------------------------|
B|---------------------------------------------------|
G|---------------------------------------------------|
D|------3-3-3---------6-6----------------------------|
A|-5-5--1-1-1--3-3-3--4-4----------------------------|
E|-3-3---------1-1-1---------------------------------|



a big fat meanie zucchini!

e|---------------------------------------------------|
B|---------------------------------------------------|
G|---------------------------------------------------|
D|--------3-3-3---------6-6--------------------------|
A|-5-5-5--1-1-1--3-3-3--4-4--------------------------|
E|-3-3-3---------1-1-1-------------------------------|




Let's chop it up, chop-chop it up,

e|---------------------------------------------------|
B|---------------------------------------------------|
G|---------------------------------------------------|
D|--------3-3-3---------3-3-3------------------------|
A|-5-5-5--1-1-1--5-5-5--1-1-1------------------------|
E|-3-3-3---------3-3-3-------------------------------|




and serve it with Linguine!

e|---------------------------------------------------|
B|---------------------------------------------------|
G|---------------------------------------------------|
D|--------3-3-3--6-6-6-6-----------------------------|
A|-5-5-5--1-1-1--4-4-4-4-----------------------------|
E|-3-3-3---------------------------------------------|





Al denteee, al denteee, al denteee, al denteeeeeee!

e|---------------------------------------------------|x4
B|---------------------------------------------------|
G|---------------------------------------------------|
D|-6------6-6-6---------6-6--------------------------|
A|-4-5-5--4-4-4--5-5-5--4-4--------------------------|
E|---3-3---------3-3-3-------------------------------|


Guitar solo:

e|-15--18--15---------------15---------15--18--15------------------15------|
B|------------18-18----15-18--14-14---------------18--18---15-15-18--14-14-|
G|-------------------------------------------------------------------------|
D|-------------------------------------------------------------------------|
A|-------------------------------------------------------------------------|
E|-------------------------------------------------------------------------|

e|-15-15-15-18-18-18-15-15-15-18-18-18-15-15-15-18-18-18-15-15-15-18-18-18-|
B|-15-15-15-18-18-18-15-15-15-18-18-18-15-15-15-18-18-18-15-15-15-18-18-18-|
G|-------------------------------------------------------------------------|
D|-------------------------------------------------------------------------|
A|-------------------------------------------------------------------------|
E|-------------------------------------------------------------------------|

e|-15-15-15-18-18-18-15-15-15------------------------|
B|-15-15-15-18-18-18-15-15-15--18-15-----------------|
G|-----------------------------------17b-17b---------|
D|---------------------------------------------------|
A|---------------------------------------------------|
E|---------------------------------------------------| 
Добавлено: 29.10.2015
Другие материалы по этой песне:
  • Аккорды и текст

Страница создана 29.10.2015
http://primanota.ru/rebecca-sugar/ste-ste-ste-steven-big-fat-zucchini-chords.htm
Привет, Гость.
Предлагаем пройти революционный курс по гитаре.
Подарок от PrimaNota.Ru, забирай!