PrimaNota.ru - самый крупный в мире бесплатный архив песенных текстов, аккордов, табулатур и нот


Rebecca Sugar - Roses Theme - таба, видео

Регистрация Запомнить меня
Войти через:  Facebook Google Twitter Vk Yandex Mail.ru

Rebecca Sugar - Roses Theme - таба, видео

Печатать
Просмотров: 233
-------------------------------------------------------------------------------
                             Rose's Theme - Rebecca Sugar
-------------------------------------------------------------------------------
Tabbed by: Sarah Ryu

My rendition of Rebecca Sugar's Rose Theme from Steven Universe 


e|-------3--4--------5--------1--0---------------------------------------------|
B|----------------1--------1---------3--1--0-----------------------------------|
G|-------------2--------2------------------------------------------------------| repeat X1
D|----2-----2--------3--------0------------------------------------------------|
A|--3--------------------------------2--0--------------------------------------|
E|-------------------------------3---------3-----------------------------------|

e|--------8---8---10--8--7------6----------8--6--5-----------------------------|
B|-----------------------------------------------------------------------------|
G|-----------------------------------------------------------------------------|
D|--------7---------------------5----------------3-----------------------------|
A|--3--------------------7-----------------------------------------------------|
E|---------------------------0-------6-----------------------------------------|

e|----8---10--11--10--8--5-----12--13--10--------------------------------------|
B|-----------------------------------------------------------------------------|
G|------------11------0--------------------------------------------------------|
D|----7------------------------0-----------------------------------------------|
A|-----------------------------------------------------------------------------|
E|-3-----------------------------------10----3---------------------------------|

Enjoy!

Please share suggestions to improve this tab, thanks!
Добавлено: 29.10.2015
Другие материалы по этой песне:
  • Аккорды и текст

Страница создана 29.10.2015
http://primanota.ru/rebecca-sugar/roses-theme-chords.htm
Привет, Гость.
Предлагаем пройти революционный курс по гитаре.
Подарок от PrimaNota.Ru, забирай!