PrimaNota.ru - самый крупный в мире бесплатный архив песенных текстов, аккордов, табулатур и нот


Rearview Mirror - Hold Your Eyes - таба, видео

Регистрация Запомнить меня
Войти через:  Facebook Google Twitter Vk Yandex Mail.ru

Rearview Mirror - Hold Your Eyes - таба, видео

Печатать
Просмотров: 58
Title: Hold Your Eyes
Artist: RearView Mirror
Album: Blown Out
Tabbed by: Liz

Tuning: DADGBE

INTRO:
E| ----------------------------------------------------------
B| ----------------------------------------------------------
G| ----------------------------------------------------------
D| ----------------------------------------------------3---2-
A| ---3---2---3---2---0---2---3---2---3/5---3---5---3--------
D| -2-------2---2-------2---2-------2------------------------
6x

E| -------------------------------------------------------------------
B| -------------------------------------------------------------------
G| -------------------------------------------------------------------
D| -3-3-3-3-3-3-3-3--7-7-7-7-7-7-7-7--3-3-3-3-3-3-3-3--2-2-2-2-2-2-2-2
A| -3-3-3-3-3-3-3-3--7-7-7-7-7-7-7-7--3-3-3-3-3-3-3-3--2-2-2-2-2-2-2-2
D| -3-3-3-3-3-3-3-3--7-7-7-7-7-7-7-7--3-3-3-3-3-3-3-3--2-2-2-2-2-2-2-2
Repeat

CHORUS:
E| -----------------------------------
B| -----------------------------------
G| -----------------------------------
D| -2-2-2-2-2--5-5-5-5-5--7-7-7-7-7---
A| -2-2-2-2-2--5-5-5-5-5--7-7-7-7-7---
D| -2-2-2-2-2--5-5-5-5-5--7-7-7-7-7---
8x

E| --------
B| --------
G| --------
D| -9--8---
A| -9--8---
D| -9--8---
Strum each chord 9x
Repeat all 6x

CHORUS 9x

E| --------------------------------------------------------------------
B| --------------------------------------------------------------------
G| --------------------------------------------------------------------
D| -3-3-X-3-3-X-3-3--7-7-X-7-7-X-7-7--3-3-X-3-3-X-3-3--2-2-X-2-2-X-2-2-
A| -3-3-X-3-3-X-3-3--7-7-X-7-7-X-7-7--3-3-X-3-3-X-3-3--2-2-X-2-2-X-2-2-
D| -3-3-X-3-3-X-3-3--7-7-X-7-7-X-7-7--3-3-X-3-3-X-3-3--2-2-X-2-2-X-2-2-
2x

CHORUS 12x (Let last chord ring out)

I also have the lyrics if anyone wants them.
E-mail me AndY0ucared@aol.com (that's a zero). RVM ROCKS!

     
Добавлено: 18.07.2013
Другие материалы по этой песне:
  • Аккорды и текст

Страница создана 18.07.2013
http://primanota.ru/rearview-mirror/hold-your-eyes-chords.htm
Привет, Гость.
Предлагаем пройти революционный курс по гитаре.
Подарок от PrimaNota.Ru, забирай!