PrimaNota.ru - самый крупный в мире бесплатный архив песенных текстов, аккордов, табулатур и нот


Rearview Mirror - Fame - таба, видео

Регистрация Запомнить меня
Войти через:  Facebook Google Twitter Vk Yandex Mail.ru

Rearview Mirror - Fame - таба, видео

Печатать
Просмотров: 70
Title: Fame
Artist: Rear View Mirror
Album: Blown Out
Transcriber: Tom Kirby

I am from Calmar, IA, which is close to Cresco, IA, where Rear View Mirror
hails from.  I saw them a couple of times at the Farr Side in Spillvile when
they were just starting.  They are a great band.  ³Fame² is track 9 on their
independent release ³Blown Out.²  It is a great cd and I recommend getting
it before you can¹t find it anymore.  This is a rather simple song to play,
but it is one of my favorites on the cd.  Other good songs include ³Animal,²
³Hold your eyes,² and ³Guilty.²  If anyone has this cd and can post the tabs
for those songs that would be great.  Any corrections send them to
tommykirby@hotmail.com.  Here it is.  Enjoy.

Drop D Tuning
VERSE:
E----------------------------------------------------------------
B----------------------------------------------------------------
G----------------------------------------------------------------
D-----7-----7-------3-------2-------7-----7-------3-------2------
A---7-----7-------3-------2-------7-----7-------3-------2--------
D-7-----7-----7-3-----3-2-----7-7-----7-----7-3-----3-2----------

CHORUS:
E----------------------------------------------------------------
B----------------------------------------------------------------
G----------------------------------------------------------------
D-7--x-7--7-7-7-3-3--2-2-2---7--x-7--7-7-7-3-3--2-2-2------------
A-7--x-7--7-7-7-3-3--2-2-2---7--x-7--7-7-7-3-3--2-2-2------------
D-7--x-7--7-7-7-3-3--2-2-2---7--x-7--7-7-7-3-3--2-2-2------------

     
Добавлено: 11.11.2013
Вам также может быть интересно:
Другие материалы по этой песне:
  • Аккорды и текст

Страница создана 11.11.2013
http://primanota.ru/rearview-mirror/fame-chords.htm
Привет, Гость.
Предлагаем пройти революционный курс по гитаре.
Подарок от PrimaNota.Ru, забирай!