PrimaNota.ru - самый крупный в мире бесплатный архив песенных текстов, аккордов, табулатур и нот


Rearview Mirror - Animal - текст песни, таба, видео

Регистрация Запомнить меня
Войти через:  Facebook Google Twitter Vk Yandex Mail.ru

Rearview Mirror - Animal - текст песни, таба, видео

Печатать
Просмотров: 130
Artist: Rearview Mirror
Album: All Lights Off
Song: Animal
Tabbed by: Brian
RVM hails from Iowa and plays some good stuff.
All clean and distorted guitars w/ no fancy
effects.  I left out how many times to play
the riffs b/c it's easy to figure out.  The intro
requires pick (finger) tapping, so if you don't
know what that is, check out the lessons section.
Animal by Rearview Mirror
Droped D (low to high: D A d G B e)
m= palm mute
/ \ = slide up or down
x= rake
^= bend
h= hammer-on
p= pull off
t= hammer w/ finger or pick
nh= natural harmonic
Intro:
e|-------------------------
B|-------------------------
G|-------------------------
d|-------------------------
A|-------------------------
D|-17-p-5-p-2--17-p-5-p-2--
   t           t
e|-------------------------
B|-------------------------
G|-------------------------
d|-------------------------
A|-------------------------
D|-17-p-5-p-2-p-0-h-2-h-3--
   t   
e|-----------------xxxx----
B|-----------------xxxx----
G|-----------------xxxx----
d|-----------------xxxx----
A|-0h2-0h3-0h2-0h3-xxxx----
D|-0h2-0h3-0h2-0h3-xxxx----
Verse:
e|-------------------------
B|-------------------------
G|-------------------------
d|-------------------------
A|-0-2-0-3----------0-2-0-3
D|-0-2-0-3----------0-2-0-3
   m m  m m        m m  m m
Chorus:
e|-----------------xxxx----
B|-----------------xxxx----
G|-----------------xxxx----
d|-----------------xxxx----
A|-0h2-0h3-0h2-0h3-xxxx----
D|-0h2-0h3-0h2-0h3-xxxx----
e|-------------------------
B|---------5^--------------
G|---------5^--------------
d|---------5^--------------
A|-0h2-0h3------0h2-0h3----
D|-0h2-0h3------0h2-0h3----
e|---------xx-x-xxxxx/\----
B|---------xx-x-xxxxx/\----
G|---------xx-x-xxxxx/\----
d|---------xx-x-xxxxx/\----
A|-0h2-0h3-xx-x-xxxxx/\----
D|-0h2-0h3-xx-x-xxxxx/\----
Order:
Intro
Verse
Chorus
Verse
Chorus
there's Animal in a nutshell, questions and comments, email at
fabian_brian@hotmail.com

     
Добавлено: 21.11.2013
Другие материалы по этой песне:
  • Аккорды и текст

Страница создана 31.05.2012
http://primanota.ru/rearview-mirror/animal-chords.htm
Привет, Гость.
Предлагаем пройти революционный курс по гитаре.
Подарок от PrimaNota.Ru, забирай!