PrimaNota.ru - самый крупный в мире бесплатный архив песенных текстов, аккордов, табулатур и нот


Rearview Mirror - 28 7 - таба, видео

Регистрация Запомнить меня
Войти через:  Facebook Google Twitter Vk Yandex Mail.ru

Rearview Mirror - 28 7 - таба, видео

Печатать
Просмотров: 80
Artist: Rearview Mirror
Album: All Lights Off
Song: 28/7
Tabbed by: Brian

Rearview Mirror is a little band from Iowa
and put on a awesome live show.  I suggest
that if you get a chance to see them that
you do it.  All RVM songs are played in
drop D with either clean or distortion.
I didn't put how many times to play stuff
b/c it's easy to figure out.  Have fun:)
28/7 by Rearview Mirror
Droped D (low to high: D A d G B e)
"m"= palm mute
" / \ "= slide up or down
x= rake
h= hammer-on
nh= natural harmonic
Intro:
e|----------------------------------------
B|----------------------------------------
G|----------------------------------------
d|----------------------------------------
A|--4--0--4--0--4--0--4-5-----------------
D|--4--0--4--0--4--0--4-5-----------------
       m     m     m 
Verse 1:
e|---------------------------|
B|---------------------------|
G|---------------------------|
d|---------------------------|   
A|-4--44-4-4-4-----4-4-4-4-4-|
D|-4--44-4-4-4-----4-4-4-4-4-|
   m  mm m m m     m m m m m
Chorus:
e|----------------------------------------
B|----------------------------------------
G|----------------------------------------
d|----------------------------------------
A|--4--0--4--0--4--0--4-5-----------------
D|--4--0--4--0--4--0--4-5-----------------
       m     m     m 
e|----------------------------------------
B|----------------------------------------
G|----------------------------------------
d|----------------------------------------
A|--9----99\7--77-7--xx-5--xx-5-55-5------
D|--9----99\7--77-7--xx-5--xx-5-55-5------
e|----------------------------------------
B|----------------------------------------
G|----------------------------------------
d|----------------------------------------
A|--4--0--4--0--4--0--4-5-----------------
D|--4--0--4--0--4--0--4-5-----------------
       m     m     m
Verse 2:
e|-------------------------------------
B|-------------------------------------
G|-------------------------------------
d|-------------------------------------
A|4------h5-4------h5-4------h5-4------
D|4------h5-4------h5-4------h5-4------
quick fill:
e|----44444
B|---444444
G|--4444444
d|-44444444
A|444444444
D|444444444

Order:
Intro
Verse1
Chorus
Verse2
Chorus
Outro (same as Intro)
questions, comments, fixes, email @ fabian_brian@hotmail.com

     
Добавлено: 18.06.2013
Другие материалы по этой песне:
  • Аккорды и текст

Страница создана 18.06.2013
http://primanota.ru/rearview-mirror/28-7-2-chords.htm
Привет, Гость.
Предлагаем пройти революционный курс по гитаре.
Подарок от PrimaNota.Ru, забирай!