PrimaNota.ru - самый крупный в мире бесплатный архив песенных текстов, аккордов, табулатур и нот


Reamonn - Josephine - аккорды и текст, таба, бас-таба, видео

Регистрация Запомнить меня
Войти через:  Facebook Google Twitter Vk Yandex Mail.ru

Reamonn - Josephine - аккорды и текст, таба, бас-таба, видео

Печатать
Просмотров: 219
Josephine
Reamonn
		   Artist: Reamonn
Title: Josephine
1st part of the Intro:
E---------------
B-------3-------
G----0----------
D---------------
A---------------
E---------------
2nd part of the Intro / Verse:
    G	        A	 	  C        D
E-----------------------------------------------------------V-------
B--------0---------0--------0-------------------------------E-------
G------0---0-----0---0----0---0----0-4p5~4------------------R-------
D-----------------------------------------------------------S-------
A-----------------------3--------5--------------------------E-------
E---3---------5---------------------------------------------1-------

    G         A         C        D
E-----------------------------------------------------------V-------
B--------0--------0---------0--------0----------------------E-------
G------0---0----0---0-----0---0----0---0--------------------R-------
D-----------------------------------------------------------S-------
A-----------------------3--------5--------------------------E-------
E---3---------5---------------------------------------------2-------
Following is played:
Verse 1: 1x
Verse 2: 5x

When you're here
Every thought I ever had
Becomes clear
But when you're far
The only light I ever see
Is the Stars.

Following is played:
Verse 1: 1x
Verse 2: 5x

And when you go
Feelings burn
As they grow
?Cause to me
To me you're beautiful.
Chorus:
    G		Bm	C					D
E---3------7----8----Can be played---------10-----------------------
B---3------7----8----after the C-Chord:----10-----------------------
G---4------7----9--------------------------11-----------------------
D---5------9----10-------------------------12-----------------------
A---5------9----10-------------------------12-----------------------
E---3------7----8--------------------------10-----------------------
			G
But when you're here
	Bm
Josephine
	C			    (D)
The stars don't shine so bright
		   G
But yeah with me
	Bm
Josephine
	 C			(D)
You'd never sleep at night
			G
But when you're here
    Bm
Josephine
    C				   (D)
The stars don't shine so bright
		   G
But yeah with me
    Bm
Josephine
	 C		    (D)
You'd never sleep at night.
Verse:
E-----------------------------------------------------------V-------
B-------0--------0--------0--------0------------------------E-------
G-----0---0----0---0----0---0----0---0----------------------R-------
D-----------------------------------------------------------S-------
A---------------------3--------5----------------------------E-------
E---3--------5----------------------------------------------2-------
Now only Verse 2:
But when you go
I never sleep as I do
And my dreams
I hold you like I never
Will release
Chorus:
			G
But when you're here
    Bm
Josephine
    C                   (D)
The stars don't shine so bright
		   G
But yeah with me
    Bm
Josephine
	 C		    (D)
You'd never sleep at night
    			G
But when you're here
    Bm
Josephine
    C                   (D)
The stars don't shine so bright
		   G
But yeah with me
    Bm
Josephine
	 C		    (D)
You'd never sleep at night
	  G
My Josephine.
Pre-Chorus:
    G		C	   D
E---3------8-------10--------x--------------------------------------
B---3------8-------10--------x--------------------------------------
G---4------9-------11--------x--------------------------------------
D---5------10------12--------x--------------------------------------
A---5------10------12--------x--------------------------------------
E---3------8-------10--------x--------------------------------------

G  C	 D            xxxxxx   G  C  D
I'm dreaming of you
		  xxxxxxx  G  C  D
Are you dreaming it too
        xxxxxxx   G  C  D
I'm dreaming of you

I scream your name.
Chorus: ... as already shown ...

Pre-Chorus: ... same as above ...
The Song's ending on:	E-----7----------
			B-----7----------
			G-----9----------
			D-----9----------
			A-----7----------
			E-----7----------     
Добавлено: 08.06.2013
Другие материалы по этой песне:

Страница создана 31.03.2012
http://primanota.ru/reamonn/josephine-chords.htm
Привет, Гость.
Предлагаем пройти революционный курс по гитаре.
Подарок от PrimaNota.Ru, забирай!