PrimaNota.ru - самый крупный в мире бесплатный архив песенных текстов, аккордов, табулатур и нот


Reality Check - Plastic - таба, видео

Регистрация Запомнить меня
Войти через:  Facebook Google Twitter Vk Yandex Mail.ru

Reality Check - Plastic - таба, видео

Печатать
Просмотров: 101
		   Author/Artist: Reality Check
Title: Plastic
Album: Reality Check
Transcribed by: Brian Germer (Soul Detergent Music)
Email: JOCGT@yahoo.com, Lennon9@the-beatles.com


For more Reality Check tabs: http://www.geocities.com/SunsetStrip/Lounge/6098/index.htm


This song is is about 3 guitars thick!  This is the best that I could do to 
simplify it to one guitar part.
***The tuning is Dropped-D (D,A,D,G,B,E).***


Intro: (b=bend, h=hammer-on)


------------------------------------------------------------------|-----------
--10------9-----------------------10------9-----------------------|-----------
--12b14--11b13--------------------12b14--11b13--------------------|-----------
----------------6h7-6-66-6h7--------------------6h7-6-66-6h7--6---|x2---------
------------------------------7-----------------------------------|-----------
------------------------------------------------------------------|-----------
                                                                              


---------------------------------------------|-----------------|--------------
---------------------------------------------|-----------------|--------------
--6h7-6-/9--9---6h7-6-66-6h7-6---6h7-6-/9--9-|-6h7-6--/11--9---|---7--6v------
---------------------------------------------|-----------------|--------------
---------------------------------------------|-----------------|--------------
---------------------------------------------|-----------------|--------------
Main riff                                     1st time only   2nd time only  


--------------------|-|-------------------------------------------------------
--------------------|-|-------------------------------------------------------
--6-----6--8-----8--|-|---------x-x-x--4-4--x-x---------x-x-x-------x-x-------
--4-----4--6-----6--|-|--1-1-1--x-x-x--4-4--x-x--3-3-3--x-x-x--6-6--x-x-------
--------------------|-|--1-1-1--x-x-x--2-2--x-x--3-3-3--x-x-x--6-6--x-x-------
--------------------|-|--1-1-1--x-x-x-------x-x--3-3-3--x-x-x--6-6--x-x-------
Verse riff- w/vibrato   Refrain                                              


-----------------------------------|-----------------------------------|------
-----------------------------------|-----------------------------------|------
-----------------------------------|-----------------------------------|------
--4-----/7-----7-7-6-----5-----5-5-|-4-----/7-----7-7-6-----8-----9-9--|------
--4-----/7-----7-7-6-----5-----5-5-|-4-----/7-----7-7-6-----8-----9-9--|------
--4-4-4-/7-7-7-7-7-6-6-6-5-5-5-5-5-|-4-4-4-/7-7-7-7-7-6-6-6-8-8-8-9-9--|------
  Outro- use palm muting on single bass notes                                 


Notes:
    On the main riff, the second time play the 2nd time only riff in place of 
the first time riff.  Listen to the song and you understand.


Song order:
Intro
Main riff x2
Verse 1 - verse riff
Chorus - main riff
Verse 2
Chorus
Refrain - the riff doesn't come in right away
Chorus - main riff w/variation
Outro


c1997 Ariose Music(EMI Christian Music Pub.)/ASCAP/Tom Collins Music/Gotee Music/Butter
Hits Music/BMI      
Добавлено: 03.09.2013
Другие материалы по этой песне:
  • Аккорды и текст

Страница создана 03.09.2013
http://primanota.ru/reality-check/plastic-chords.htm
Привет, Гость.
Предлагаем пройти революционный курс по гитаре.
Подарок от PrimaNota.Ru, забирай!