PrimaNota.ru - самый крупный в мире бесплатный архив песенных текстов, аккордов, табулатур и нот


Reality Check - Losing Myself - таба, видео

Регистрация Запомнить меня
Войти через:  Facebook Google Twitter Vk Yandex Mail.ru

Reality Check - Losing Myself - таба, видео

Печатать
Просмотров: 107
		   Author/Artist: Reality Check
Title: Losing Myself
Album: Reality Check
Transcribed by: Brian Germer
Email: JOCGT@yahoo.com
c1997 Ariose Music/ASCAP/Tom Collins Music/Gotee Music/Fungi Music/BMI

This song is in Dropped-D tuning (That's DADGBE low to high).
The chorus part is one of the best riffs I have heard!  Towards the end play the
complete riff one fret higher.

Chorus riff:
------------------------------------------------------|
------------------------------------------------------|
----------3---4--4----4-------------------------------|
--1--1----3---4--4----4---6--6----3---4--4---0--0-----|
--1--1----1---2--2----2---6--6----3---4--4---0--0-----|
--1--1--------------------6--6----3---4--4---0--0-----|
                                                                              
------------------------------------------------------|
------------------------------------------------------|
----------3---4--4----4-------------------------------|
--1--1----3---4--4----4---6--6--6-6-6---2-2--2--2-----|
--1--1----1---2--2----2---6--6--6-6-6---2-2--2--2-----|
--1--1--------------------6--6--6-6-6---2-2--2--2-----|
                                                                              

The first part of the verse is just muted scratches with a wah.  Hold your hand around
the first fret and scratch away with.  Then after a few lines start playing the below 
chord with various scratching.  Just listen and you'll get the idea.

--6--x-x-x-x--|
--6--x-x-x-x--|
--7--x-x-x-x--|
--8--x-x-x-x--|
--------------|
--------------|
                                                                              
That is about it!  If you what more Reality Check tabs go to: 
http://members.xoom.com/Jarstabs/index.htm
     
Добавлено: 27.10.2013
Вам также может быть интересно:
Другие материалы по этой песне:
  • Аккорды и текст

Страница создана 27.10.2013
http://primanota.ru/reality-check/losing-myself-chords.htm
Привет, Гость.
Предлагаем пройти революционный курс по гитаре.
Подарок от PrimaNota.Ru, забирай!