PrimaNota.ru - самый крупный в мире бесплатный архив песенных текстов, аккордов, табулатур и нот


Reality Addiction - I Never Asked - таба, видео

Регистрация Запомнить меня
Войти через:  Facebook Google Twitter Vk Yandex Mail.ru

Reality Addiction - I Never Asked - таба, видео

Печатать
Просмотров: 108
Уроки эстрадного вокала в Санкт-Петербурге
Reality Addiction
I Never Asked
Key: Dm
Tuning: Drop D



(Intro)            X3
e|--------|--------||--------|-------------------|
B|33------|--------||33------|-------------------|
G|--230x--|--------||--230x--|-------------------|
D|--------|--------||--------|-8(10)(10)(10)(10)x|
A|--------|--------||--------|-8(10)(10)(10)(10)x|
D|--------|-335555x||--------|-8(10)(10)(10)(10)x|


Guitar 1:
e|--------|--------|--------|-1100000|
B|33313333|3--11111|33313333|3-------|
G|--------|-22-----|--------|--------|
D|--------|--------|--------|--------|
A|--------|--------|--------|--------|
D|--------|--------|--------|--------|


Guitar 2:
e|11101111|11133333|11101111|11133333|
B|--------|--------|--------|--------|
G|--------|--------|--------|--------|
D|--------|--------|--------|--------|
A|--------|--------|--------|--------|
D|--------|--------|--------|--------|


Verse Part 2: X2
e|---10-13-10-10-13-10-13-|12-10----10-12-10-------|
B|10----------------------|------10----------10----|
G|------------------------|------------------------|
D|------------------------|------------------------|
A|------------------------|------------------------|
D|------------------------|------------------------|

e|---10-13-10-10-13-10-13-|12-10----10-15----------|
B|10----------------------|------10----------------|
G|------------------------|------------------------|
D|------------------------|------------------------|
A|------------------------|------------------------|
D|------------------------|------------------------|


Pre-Chorus:              X4
e|--------------|--------||
B|--------------|--------||
G|--------------|--------||
D|(12)(12)785x--|-335555x||
A|(12)(12)785x--|-335555x||
D|(12)(12)785x--|-335555x||


(Chorus)                       X3
e|--------------------|--------||--------|
B|--------------------|--------||--------|
G|--------------------|--------||----7777|
D|(12)(12)(12)(12)8888|33335555||----7777|
A|(12)(12)(12)(12)8888|33335555||77775555|
D|(12)(12)(12)(12)8888|33335555||7777----|


(V2, same as V1)


Bridge X2:
e|-----------------------|---------|--------|--------|--------|--------|
B|-----------------------|---------|--------|--------|--------|--------|
G|-----------------------|---------|--------|--------|--------|--------|
D|(12)(12)(12)x--(12)(12)|12x------|777x--77|7x------|8-----3-|77777777|
A|(12)(12)(12)x--(12)(12)|12x------|777x--77|7x------|8-----3-|77777777|
D|(12)(12)(12)x--(12)(12)|12x------|777x--77|7x------|8-----3-|77777777|

e|----------|--------------------------||
B|----------|--------------------------||
G|----------|--------------------------||
D|7--10--12-|-(12)(12)(12)(12)(12)(12)x||
A|7--10--12-|-(12)(12)(12)(12)(12)(12)x||
D|7--10--12-|-(12)(12)(12)(12)(12)(12)x||


Guitar Solo:
e|13-10----13-12-------12-|10-------10-12-------12-|
B|------10----------10----|------------------10----|
G|---------------12-------|---10-12-------12-------|
D|------------------------|------------------------|
A|------------------------|------------------------|
D|------------------------|------------------------|

e|13-10----13-12-------12-|10-------10-12----------|
B|------10----------10----|------------------------|
G|---------------12-------|---10-12----------------|
D|------------------------|------------------------|
A|------------------------|------------------------|
D|------------------------|------------------------|



(Chorus X2)


Ending:
e|--------|--------------------------------|--------------------------------|
B|--------|--------------------------------|--------------------------------|
G|77777777|(10)(10)(10)(10)(10)(10)(10)(10)|(12)(12)(12)(12)(12)(12)(12)(12)|
D|77777777|(10)(10)(10)(10)(10)(10)(10)(10)|(12)(12)(12)(12)(12)(12)(12)(12)|
A|55555555|(8-)(8-)(8-)(8-)(8-)(8-)(8-)(8-)|(10)(10)(10)(10)(10)(10)(10)(10)|
D|--------|--------------------------------|--------------------------------|

e|-------------------------|---------|
B|-------------------------|---------|
G|(14)(14)(14)-------------|---------|
D|(14)(14)(14)(12)---(12)--|12-------|
A|(12)(12)(12)(12)---(12)--|12-------|
D|------------(12)---(12)--|12-------|

Notes:
-I just updated the verse and added the guitar solo. I'm going to claim a 90-100% accuracy.
Добавлено: 26.04.2012
Другие материалы по этой песне:
  • Аккорды и текст

Страница создана 26.04.2012
http://primanota.ru/reality-addiction/i-never-asked-chords.htm
Привет, Гость.
Предлагаем пройти революционный курс по гитаре.
Подарок от PrimaNota.Ru, забирай!