PrimaNota.ru - самый крупный в мире бесплатный архив песенных текстов, аккордов, табулатур и нот


Real Friends - And Were Just Changing - таба, видео

Регистрация Запомнить меня
Войти через:  Facebook Google Twitter Vk Yandex Mail.ru

Real Friends - And Were Just Changing - таба, видео

Печатать
Просмотров: 164
-------------------------------------------------------------------------------
                             And We're Just Changing- Real Friends
-------------------------------------------------------------------------------
Tabbed by: alex720
E-mail: alex.astrella@gmail.com

Awesome closer to such an amazing album! Sorry I haven't posted more tabs from the album
recently, been really busy with school. I'm gonna try to get some more up soon though!

Tuning: Drop C#

Intro (let notes ring out)
e|--------------------------------------0-------0---------------------|
B|---2-----2----------2-----2-----------------------------------------|
G|-----------------------------------------2-------2---- 2------------|
D|-----0-2---0-2-0------0-2---0-2-0-----------------------------------|
A|-----------------------------------2--------2-------2---------------|
E|-0----------------0-------------------------------------------------|

e|-----0-------0----------------------------------|
B|------------------------------------------------|
G|--------2-------2-------------------------------|
D|------------------------------------------------|  all x4 then
A|--2--------2-------2-----0----------------------|
E|-----------------------4------------------------|

e|--------------------------------------------------------|
B|----2---------2-----------2---------2-----------5-------|
G|------------------------------------------------4-------|
D|-------0-2-------0-2-0-------0-2-------0-2-0----0--x16--|
A|------------------------------------------------2-------|
E|--0---------0-----------0---------0---------------------|

Pre-chorus:
e|----------------------------------------------------------------------------------|
B|----------------------------------------------------------------------------------|
G|--11-11--------7-7---------11-11--------7-7---9-9-9--7-7-7---------------9~---7~--|
D|--x--x--xxxxx--x-x--xxxxx--x--x--xxxxx--x-x---x-x-x--x-x-x---x2---then---x----x---|
A|--9--9--xxxxx--5-5--xxxxx--9--9--xxxxx--5-5---7-7-7--5-5-5---------------7~---5~--|
E|----------------------------------------------------------------------------------|

A second guitar comes in playing this:
e|-------------------------------------------------------------------------------------|
B|-------------------------------------------------------------------------------------|
G|-------------------------------------------------------------------------------------|
D|------0------0------0-----0-----0-----0-----0-----0----------------------------------|
A|----0------0------0-----0-----0-----0-----0-----0------------------------------------|
E|--2------4------5-----5-----5-----5-----5-----5--------------------------------------|

then
e|-------------------------|
B|-------------------------|
G|--11-11-------7-7--------|
D|--x--x--xxxxx-x-x----5+--|
A|--9--9--xxxxx-5-5--------|
E|-------------------------|

Chorus (It's honestly hard to hear what part each guitar is playing here so I put in two
versions. Take your pick of which sounds better.)
e|--5-------------------------------------------------|
B|--7---x24--5------3------5------3----------all--x2--|
G|--7--------7--x3--0--x8--7--x3--0--x8---------------|
D|--0--------7------5------7------5-------------------|
A|----------------------------------------------------|
E|----------------------------------------------------|

alternate version:
e|--------------------------------------------------|
B|--------------------------------------------------|
G|--11------9------7------9------7---------all--x2--|
D|--x--x24--x--x3--x--x8--x--x3--x--x8--------------|
A|--9-------7------5------7------5------------------|
E|--------------------------------------------------|

Post-chorus:
guitar 1
e|-------------------------------------------------------------------------------------|
B|-------------------------------------------------------------------------------------|
G|--6/7-7--2~----x2--------------------------------------------------------------------|
D|--x-x-x--x---------------------------------------------------------------------------|
A|--4/5-5--0~--------------------------------------------------------------------------|
E|-------------------------------------------------------------------------------------|

guitar 2
e|----------0~-------------------0~--------2p0---------------------------------------|
B|-------3~----3~-------------3~----3~-----------------------------------------------|
G|----2~-------------------2~--------------------------------------------------------|
D|-----------------------------------------------------------------------------------|
A|-----------------------------------------------------------------------------------|
E|-----------------------------------------------------------------------------------|

Verse 2:

e|---------0------------0------------0------------0--------------------------------|
B|------------3------------3------------3------------3-----------------------------|
G|-----2-------------2------------2------------2-----------------------------------|
D|--0-------------0------------0------------0--------------------------------------|
A|---------------------------------------------------------------------------------|
E|---------------------------------------------------------------------------------|    ]
                                                                                  ] both measures x2
                                                                                  ]
e|---------0------------0------------0------------0--------------------------------|  ]
B|------------3------------3------------3------------3-----------------------------|
G|-----2-------------2------------2------------2-----------------------------------|
D|--5-------------5------------5------------5--------------------------------------|
A|---------------------------------------------------------------------------------|
E|---------------------------------------------------------------------------------|

Pre chorus 2:

e|---2---2---5~----0-------0------0-----------------------------------------------------|
B|-----3---3---------3-------3------3--------all-x4-------------------------------------|
G|---------------------2-------2------2-------------------------------------------------|
D|--------------------------------------------------------------------------------------|
A|--------------------------------------------------------------------------------------|
E|--------------------------------------------------------------------------------------|

Repeat Chorus

Bridge:

guitar 1:
e|---------------------------------------------|
B|-----------------------------------------3~--|
G|----------6--------------6---------------2~--|
D|--4--0~---7--x16--4--0~--7--x16--4--0~---0~--|
A|--4--0~---4-------4--0~--4-------4--0~---0~--|
E|--4--0~-----------4--0~----------4--0~-------|
                           ^i like to throw in some bends on the G string while strumming here
guitar 2:
e|---------------------------------------------|
B|-----------------------------------------3~--|
G|-----------------------------------------2~--|
D|--4--0~--5-------4--0~--5--------4--0~---0~--|
A|--4--0~--5--x16--4--0~--5--x16---4--0~---0~--|
E|--4--0~--5-------4--0~--5--------4--0~-------|

Outro (starts at 3:13):
e|-----------------------------------------------------|
B|-----------------------------------------------------|
G|-----------------------------------------------------|
D|------0-----0-----0----0--4p0-----0--4p0-----0--4p0--|
A|----0-----0-----0----0----------0----------0---------|
E|--2-----4-----5--------------------------------------|  ] both measures
                                                                                  ]     x2
e|-----------------------------------------------|    ]
B|-----------------------------------------------|
G|------7------6--------2p0-------2p0-------2p0--|
D|----0------0-------0---------0---------0-------|
A|--5------4------0---------0---------0----------|
E|-----------------------------------------------|

then...
e|----------------------------------------------------------------------------------|
B|----------------------------------------------------------------------------------|
G|-------------------------7+~------------------------------------------------------|
D|------0------0-----------7+~------------------------------------------------------|
A|----0------0----------------------------------------------------------------------|
E|--2------4------5~----------------------------------------------------------------|

Please rate and let me know if there are any corrections! Thanks
************************************

| /   slide up
| \   slide down
| h   hammer-on
| p   pull-off
| ~   vibrato
| +   harmonic
| x   Mute note
| b   Bend
| pb  Pre-bend
| br  Bend release
| pbr Pre-bend release
| brb Bend release bend

************************************
Добавлено: 22.04.2015
Вам также может быть интересно:
Другие материалы по этой песне:
  • Аккорды и текст

Страница создана 22.04.2015
http://primanota.ru/real-friends/and-were-just-changing-chords.htm
Привет, Гость.
Предлагаем пройти революционный курс по гитаре.
Подарок от PrimaNota.Ru, забирай!