PrimaNota.ru - самый крупный в мире бесплатный архив песенных текстов, аккордов, табулатур и нот


Real Estate - Municipality - таба, видео

Регистрация Запомнить меня
Войти через:  Facebook Google Twitter Vk Yandex Mail.ru

Real Estate - Municipality - таба, видео

Печатать
Просмотров: 106
Tabbed by: Eli W.
Email: randomenchiladas@gmail.com

Tuning: E Standard

Transcribed from Live at Insound Version, which is virtually the same as the record. My
first tab so there might be some mistakes. Please leave suggestions in the comments.
Spacing in the tab isn't relative to the song, so listen for the rhythm. Since I'm new 
to tabbing the spacing is a little off. Feel free to spice parts of the lead up with some
slides and hammer ons. Throw on a phaser and some slapback and you'll have the perfect 
tone for this!
   Guitar 1
e|-----------------------------------------------------------------------------|
B|--------2------2------22--2-------2------2-------22--------------------------|
G|--------2------2------22--2-------2------2------ 22---------2--2h4-2---------|
D|-----4--4---3--3---2--22--2----4--4---3--3---2--22-----2h4-------------------| X4
A|-------0------0------0----0------0------0------0-----------------------------|
E|-----------------------------------------------------------------------------|
    Guitar 2
e|-----------------------------------------------------------------------------|
B|------------2h3-2--2-------------------2h3-2---2-----------------------------|
G|------------------4--2------------------------4--2--------2------------------|
D|-----------------------4---------------------------4--2h4--------------------|X4
A|-----------------------------------------------------------------------------|
E|-----------------------------------------------------------------------------|
    Guitar 1
e|-----------------------------------------------------------------------------|
B|-------2------2------22---2-------2------2------ 22--2-----------------------|
G|-------2------2------22---2-------2------2------ 22--2-----------------------|
D|----4--4---3--3---2--22---2----4--4---3--3---2--22--2------------------------| X2
A|-----0------0------0----0--------0------0------0---0-------------------------|
E|-----------------------------------------------------------------------------|
    Guitar 2
e|-----0--0---0--0---0--0-------------0--0---0--0---0--0-----------------------|
B|----3--3---2--2---0--0-----2--2----3--3---2--2---0--0-----2--2---------------|
G|--------------------------4--4----------------------------4--4-----------------|
D|------------------------------------------------------------------------------| X2
A|------------------------------------------------------------------------------|
E|------------------------------------------------------------------------------|

    Guitar 1
e|--------------------------2222----------5--7--9--9--7--5---------------------|
B|----2222---2222---2222---4444----5--7-------------------7--5-----------------|
G|----2222---2222---2222---2222------------------------------------------------|
D|----4444---3333---2222---4444------------------------------------------------|
A|-------------------------- 2222----------------------------------------------|
E|-----------------------------------------------------------------------------|

    Guitar 2
e|-----5--5---5--5---0--0---0--0---0--0-------5--------5-----------------------|
B|----7--7---6--6---5--5---4--4---5--5------7---7----7---7---------------------|
G|-----------------------------------------------------------------------------|
D|----------------------------------------7---------7--------------------------|
A|-----------------------------------------------------------------------------|
E|-----------------------------------------------------------------------------|

  Guitar 1
e|-----------------------------------------------------------------------------|
B|--------2------2------22--2-------2------2-------22--------------------------|
G|--------2------2------22--2-------2------2------ 22---------2--2h4-2---------|
D|-----4--4---3--3---2--22--2----4--4---3--3---2--22-----2h4-------------------| X2
A|-------0------0------0----0------0------0------0-----------------------------|
E|-----------------------------------------------------------------------------|
    Guitar 2
e|-----------------------------------------------------------------------------|
B|------------2h3-2--2-------------------2h3-2---2-----------------------------|
G|------------------4--2------------------------4--2--------2------------------|
D|-----------------------4---------------------------4--2h4--------------------|X2
A|-----------------------------------------------------------------------------|
E|-----------------------------------------------------------------------------|
   Guitar 1
e|-----------------------------------------------------------------------------|
B|-------2------2------22---2-------2------2------ 22--2-----------------------|
G|-------2------2------22---2-------2------2------ 22--2-----------------------|
D|----4--4---3--3---2--22---2----4--4---3--3---2--22--2------------------------| X2
A|-----0------0------0----0--------0------0------0---0-------------------------|
E|-----------------------------------------------------------------------------|
   
  Guitar 2
e|-----0--0---0--0---0--0-------------0--0---0--0---0--0-----------------------|
B|----3--3---2--2---0--0-----2--2----3--3---2--2---0--0-----2--2---------------|
G|--------------------------4--4----------------------------4--4-----------------|
D|------------------------------------------------------------------------------| X2
A|------------------------------------------------------------------------------|
E|------------------------------------------------------------------------------|

    Guitar 1
e|--------------------------2222----------5--7--9--9--7--5---------------------|
B|----2222---2222---2222---4444----5--7-------------------7--5-----------------|
G|----2222---2222---2222---2222------------------------------------------------|
D|----4444---3333---2222---4444------------------------------------------------|
A|-------------------------- 2222----------------------------------------------|
E|-----------------------------------------------------------------------------|

 Guitar 2
e|-----5--5---5--5---0--0---0--0---0--0-------5--------5-----------------------|
B|----7--7---6--6---5--5---4--4---5--5------7---7----7---7---------------------|
G|-----------------------------------------------------------------------------|
D|----------------------------------------7---------7--------------------------|
A|-----------------------------------------------------------------------------|
E|-----------------------------------------------------------------------------|

 Guitar 1(con.)
e|----------5--7--9--9--7--5-------------------------------------------------|
B|----5--7-------------------7--5--------------------------------------------|
G|---------------------------------------------------------------------------|
D|---------------------------------------------------------------------------|
A|---------------------------------------------------------------------------|
E|---------------------------------------------------------------------------|

  Guitar 2(con.)
e|----0---0-------5------5---------------------------------------------------|
B|---5---5------7--7---7--7--------------------------------------------------|
G|---------------------------------------------------------------------------|
D|------------7-------7------------------------------------------------------|
A|---------------------------------------------------------------------------|
E|---------------------------------------------------------------------------|
  Guitar 1
e|-----------------------------------------------------------------------------|
B|--------2------2------22--2-------2------2-------22--------------------------|
G|--------2------2------22--2-------2------2------ 22---------2--2h4-2---------|
D|-----4--4---3--3---2--22--2----4--4---3--3---2--22-----2h4-------------------| X2
A|-------0------0------0----0------0------0------0-----------------------------|
E|-----------------------------------------------------------------------------|
    Guitar 2
e|-----------------------------------------------------------------------------|
B|------------2h3-2--2-------------------2h3-2---2-----------------------------|
G|------------------4--2------------------------4--2--------2------------------|
D|-----------------------4---------------------------4--2h4--------------------|X2
A|-----------------------------------------------------------------------------|
E|-----------------------------------------------------------------------------|
     Guitar 1
e|----------------------------5/7-7/9-9\7-5----------------------------------|
B|----2/5-7/2---2/5------5/7----------------7\5------------------------------|
G|------------------2/4------------------------------------------------------|
D|---------------------------------------------------------------------------|
A|---------------------------------------------------------------------------|
E|---------------------------------------------------------------------------|

   Guitar 2
e|-----0--0---0--0---0--0-------------0--0---0--0---0--0-----------------------|
B|----3--3---2--2---0--0-----2--2----3--3---2--2---0--0-----2--2---------------|
G|--------------------------4--4----------------------------4--4-----------------|
D|------------------------------------------------------------------------------| X2
A|------------------------------------------------------------------------------|
E|------------------------------------------------------------------------------|

    Guitar 1
e|--------------------------2222----------5--7--9--9--7--5---------------------|
B|----2222---2222---2222---4444----5--7-------------------7--5-----------------|
G|----2222---2222---2222---2222------------------------------------------------|
D|----4444---3333---2222---4444------------------------------------------------|  X2
A|-------------------------- 2222----------------------------------------------|
E|-----------------------------------------------------------------------------|

 Guitar 2
e|-----5--5---5--5---0--0---0--0---0--0-------5--------5-----------------------|
B|----7--7---6--6---5--5---4--4---5--5------7---7----7---7---------------------|
G|-----------------------------------------------------------------------------|
D|----------------------------------------7---------7--------------------------|X2
A|-----------------------------------------------------------------------------|
E|-----------------------------------------------------------------------------|

 Guitar 1(con.)
e|----------5--7--9--9--7--5-------------------------------------------------|
B|----5--7-------------------7--5--------------------------------------------|
G|---------------------------------------------------------------------------|
D|---------------------------------------------------------------------------|
A|---------------------------------------------------------------------------|
E|---------------------------------------------------------------------------|

  Guitar 2(con.)
e|----0---0-------5------5---------------------------------------------------|
B|---5---5------7--7---7--7--------------------------------------------------|
G|---------------------------------------------------------------------------|
D|------------7-------7------------------------------------------------------|
A|---------------------------------------------------------------------------|
E|---------------------------------------------------------------------------|

Guitar 1
e|-----------------------------------------------------------------------------|
B|--------2------2------22--2-------2------2-------22-------------------2------|
G|--------2------2------22--2-------2------2------ 22---------2--2h4-2--2------|
D|-----4--4---3--3---2--22--2----4--4---3--3---2--22-----2h4-----------2-------| X2
A|-------0------0------0----0------0------0------0----------------------0------|
E|-----------------------------------------------------------------------------|
    Guitar 2
e|-----------------------------------------------------------------------------|
B|------------2h3-2--2-------------------2h3-2---2-----------------------------|
G|------------------4--2------------------------4--2--------2------------------|
D|-----------------------4---------------------------4--2h4--------------------|X2
A|-----------------------------------------------------------------------------|
E|-----------------------------------------------------------------------------|

Note: On the last section of the tab above, play it slower than the rest. Thanks for
looking! :) Once again please put constructive criticism and stuff in the comments.

************************************

| /   slide up
| \   slide down
| h   hammer-on
| p   pull-off
| ~   vibrato
| +   harmonic
| x   Mute note
| b   Bend
| pb  Pre-bend
| br  Bend release
| pbr Pre-bend release
| brb Bend release bend

************************************
Добавлено: 27.09.2013
Другие материалы по этой песне:
  • Аккорды и текст

Страница создана 20.06.2013
http://primanota.ru/real-estate/municipality-chords.htm
Привет, Гость.
Предлагаем пройти революционный курс по гитаре.
Подарок от PrimaNota.Ru, забирай!