PrimaNota.ru - самый крупный в мире бесплатный архив песенных текстов, аккордов, табулатур и нот


Real Estate - Motorbikes - бас-таба, видео

Регистрация Запомнить меня
Войти через:  Facebook Google Twitter Vk Yandex Mail.ru

Real Estate - Motorbikes - бас-таба, видео

Печатать
Просмотров: 104
-------------------------------------------------------------------------------
                  Motorbikes - Real Estate (off Reality EP)
-------------------------------------------------------------------------------

Tabbed by: Rbeaver1340 


MAIN PART: 

G|---------------------------------------------------------------------------|
D|---------------------------------------------------------------------------|
A|---0---4-5-4-2-0-----0-4-5-4-2-0----0--4-5-4-2-0----0--4-5-4-2-0-----------|
E|5-----------------5--------------5---------------5-------------------------|

G|---------------------------------------------------------------------------|
D|---------------------------------------------------------------------------|
A|---0---4-5-4-2-0-----0-4-5-4-2-0----0--4-5-4-2-0----0--4-5-4-2-0-----------|
E|5-----------------5--------------5---------------5-------------------------|


G|---------------------------------------------------------------------------|
D|---------------------------------------------------------------------------|
A|---0---4-5-4-2-0-----0-4-5-4-2-0----0--4-5-4-2-0----0--4-5-4-2-0-----------|
E|5-----------------5--------------5---------------5-------------------------|


G|---------------------------------------------------------------------------|
D|---------------------------------------------------------------------------|
A|---0---4-5-4-2-0-----0-4-5-4-2-0----0--4-5-4-2-0----0--4--2-0--------------|
E|5-----------------5--------------5---------------5-------------------------|
(Note the ending change) 

OUTRO: 

G|-------------------------------------------------------------------|
D|5----5---5h7p5-0-0-------------7----7---7-5-5-0--------------------|
A|-------------------4-5-4-2-0------------------------4-5-4-2-0------|
E|-------------------------------------------------------------------|



| /  slide up
| \  slide down
| h  hammer-on
| p  pull-off
| ~  vibrato
| +  harmonic
| x  Mute note
===============================================================================
Добавлено: 15.05.2015
Другие материалы по этой песне:
  • Аккорды и текст

Страница создана 15.05.2015
http://primanota.ru/real-estate/motorbikes-chords.htm
Привет, Гость.
Предлагаем пройти революционный курс по гитаре.
Подарок от PrimaNota.Ru, забирай!