PrimaNota.ru - самый крупный в мире бесплатный архив песенных текстов, аккордов, табулатур и нот


Real Estate - Crime - таба, видео

Регистрация Запомнить меня
Войти через:  Facebook Google Twitter Vk Yandex Mail.ru

Real Estate - Crime - таба, видео

Печатать
Просмотров: 122
-------------------------------------------------------------------------------
                             Crime - Real Estate
-------------------------------------------------------------------------------

Tuning: Standard

Taken directly from the video the band posted when they first released the song

Guitar 1: Capo on 2nd fret
Guitar 2: No capo

Intro/Verse:

Guitar 1:

e|--0----0--0----0----0----0--0----------------------------------------------|
B|--1----1--1----1----3----3--3--1-------------------------------------------|
G|--2----2--0----0----5----5--5--0-------------------------------------------|
D|--3----3--0h2--2----4----4--4--0-------------------------------------------|
A|----------3----3----5----5--5----------------------------------------------|
E|---------------------------------------------------------------------------|

Guitar 2:

e|----------2--0-------------------------------------------------------------|
B|----------------3--------3-------------------------------------------------|
G|--2----4-----------2--4-----4----------------------------------------------|
D|---------------------------------------------------------------------------|
A|---------------------------------------------------------------------------|
E|---------------------------------------------------------------------------|

Chorus:

Guitar 1:

e|--------------|----------------|--------------|---------------0------------|
B|--3--1--1--1--|--0--0--0-0--0--|--0--0--0--0--|--0--0--0-0--0-1------------|
G|--5--0--0--0--|--0--0--0-0--0--|--0--0--0--0--|--0--0--0-0--0-2------------|
D|--4--2--2--2--|--0--0--2-2--0--|--0--0--0--0--|--0--0--2-2--0-3------------|
A|--5--3--3--3--|--2--2--3-3--2--|--2--2--2--2--|--2--2--3-3--0-3------------|
E|--------------|--3--3-------3--|--3--3--3--3--|--3--3---------1------------|

Guitar 2:

e|-----------|----------5----|---------5---5--|-------5----------------------|
B|-----3--5--|--2--2--2---2--|--2-2--2---2----|---------------0--------------|
G|--2--------|---------------|----------------|--6--6---6-7-6----------------|
D|-----------|---------------|----------------|------------------------------|
A|-----------|---------------|----------------|------------------------------|
E|-----------|---------------|----------------|------------------------------|

Guitar 1:

e|--0--0--0-0-0--|--0-0-0-0-0--|--0--0-0--|--0-0--0--------------------------|
B|--1--1--1-1-1--|--1-1-1-1-3--|--3--3-3--|--1-1--1--------------------------|
G|--2--2--2-2-2--|--2-2-2-2-5--|--5--5-5--|--2-2--2--------------------------|
D|--3--3--3-3-3--|--3-3-2-2-4--|--4--4-4--|--0-0--0--------------------------|
A|--3--3--3-3-3--|--3-3-----5--|--5--5-5--|--3-3--3--------------------------|
E|--1--1--1-1-1--|--1-1--------|----------|----------------------------------|

Guitar 2:

e|--5----5--5--|--7---7--5-5--7--|--5-----5---------|-------0----------------|
B|-----0-------|-----------------|-----5-----5-7-5--|--3--3----3--2----------|
G|-------------|----7------------|------------------|------------------------|
D|-------------|-----------------|------------------|------------------------|
A|-------------|-----------------|------------------|------------------------|
E|-------------|-----------------|------------------|------------------------|

Solo 1:

Guitar 1:

e|--0------|--0------|--5--5--0-0--0--0--------------------------------------|
B|--1------|--1------|--3--3--1-1--1--1--------------------------------------|
G|--2--8x--|--2--8x--|--4--4--0-0--2--2--------------------------------------|
D|--3------|--3------|--5--5--2-2--3--3--------------------------------------|
A|--3------|--3------|--------3-3--3--3--------------------------------------|
E|---------|---------|-------------------------------------------------------|

Guitar 2:

e|----0---0--0---0--|----0---0-------|-------------10-9-----|----------------|
B|--7---7-------7---|--7---7----7-0--|-------10h12------10--|----------------|
G|------------------|----------------|--9/11----------------|----------------|
D|------------------|----------------|----------------------|----------------|
A|------------------|----------------|----------------------|----------------|
E|------------------|----------------|----------------------|----------------|

Guitar 1:

e|--5--5--0-0--0--0--0--0--0--0--5--5--0-0--0--0--|--------------------------|
B|--3--3--1-1--1--1--1--1--1--1--3--3--1-1--1--1--|--------------------------|
G|--4--4--0-0--2--2--0--0--0--0--4--4--0-0--2--2--|--------------------------|
D|--5--5--2-2--3--3--2--2--2--2--5--5--2-2--3--3--|--------------------------|
A|--------3-3--3--3--3--3--3--3--------3-3--3--3--|--------------------------|
E|------------------------------------------------|--------------------------|

Guitar 2:

e|-----------12-10--9------------------------10-9---------12--|--------------|
B|-------10-----------10------10-------10-12------10----------|--------------|
G|--9/11-----------------9/11-----9/11----------------11------|--------------|
D|------------------------------------------------------------|--------------|
A|------------------------------------------------------------|--------------|
E|------------------------------------------------------------|--------------|

Guitar 1:

e|--5--5--0-0--0--0--|--0--0--0-0--|--5--5--0-0--0--0------------------------|
B|--3--3--1-1--1--1--|--1--1--1-1--|--3--3--1-1--1--1------------------------|
G|--4--4--0-0--2--2--|--0--2--2-2--|--4--4--0-0--2--2------------------------|
D|--5--5--2-2--3--3--|--2--3--3-3--|--5--5--2-2--3--3------------------------|
A|--------3-3--3--3--|--3--3--3-3--|--------3-3--3--3------------------------|
E|-------------------|-------------|-----------------------------------------|

Guitar 2:

e|--12-9-----9-----------|--------------------|---------9-10-9------12-------|
B|--------12---12----10--|-----12--12-10--10--|------10---------10-----------|
G|----------------11-----|--11----------------|--11--------------------------|
D|-----------------------|--------------------|------------------------------|
A|-----------------------|--------------------|------------------------------|
E|-----------------------|--------------------|------------------------------|

Guitar 1:

e|--5--5--0-0--0--0--|--0--0--0--|--5--5--0-0--0-----------------------------|
B|--3--3--1-1--1--1--|--1--1--1--|--3--3--1-1--1-----------------------------|
G|--4--4--0-0--2--2--|--0--2--2--|--4--4--2-2--2-----------------------------|
D|--5--5--2-2--3--3--|--2--3--3--|--5--5--3-3--3-----------------------------|
A|--------3-3--3--3--|--3--3--3--|--------3-3--3-----------------------------|
E|-------------------|-----------|-------------------------------------------|

Guitar 2:

e|--10-12-9-----------9--|----------------9--|-----10-9----------------------|
B|-----------10----10----|--10-----12-10-----|--10-------10--12--------------|
G|--------------11-------|------11-----------|-------------------------------|
D|-----------------------|-------------------|-------------------------------|
A|-----------------------|-------------------|-------------------------------|
E|-----------------------|-------------------|-------------------------------|

Guitar 1:

e|--0-0--0-0--0--0-0--0-0--0--|--0-0--0-0------------------------------------|
B|--1-1--1-1--3--3-3--3-3--1--|--1-1--1-1------------------------------------|
G|--2-2--2-2--5--5-5--5-5--0--|--0-0--0-0------------------------------------|
D|--3-3--3-3--4--4-4--4-4--2--|--2-2--2-2------------------------------------|
A|--3-3--3-3--5--5-5--5-5--3--|--3-3--3-3------------------------------------|
E|----------------------------|----------------------------------------------|

Guitar 2:

e|--9------9---------0------0--|------0--------------------------------------|
B|-----12-----10--9-----10-----|--10-----------------------------------------|
G|-----------------------------|-----------2---------------------------------|
D|-----------------------------|---------------------------------------------|
A|-----------------------------|---------------------------------------------|
E|-----------------------------|---------------------------------------------|

Back to verse for a little

Solo 2 into chorus:

Guitar 1:

e|-------------------------|--8-7----5-----------|------------------|-------|
B|--1/3-3/5-5-8--10----10--|------8-----5--3--3--|--------5---------|-------|
G|-------------------------|---------------------|--4-7-8----7-5-2--|-------|
D|-------------------------|---------------------|------------------|-------|
A|-------------------------|---------------------|------------------|-------|
E|-------------------------|---------------------|------------------|-------|

Guitar 2:

main verse riff

Guitar 1:

e|---------------|------------|----------------|--------------|-------------|
B|------1--3-----|------1--3--|--0--0--0-0--0--|--0--0--0--0--|-------------|
G|--0-2-------2--|--0-2-------|--0--0--0-0--0--|--0--0--0--0--|-------------|
D|---------------|------------|--0--0--2-2--0--|--0--0--0--0--|-------------|
A|---------------|------------|--2--2--3-3--2--|--2--2--2--2--|-------------|
E|---------------|------------|--3--3-------3--|--3--3--3--3--|-------------|

Guitar 2:

main verse riff

Guitar 1:

e|--------------0--|--0--0--0-0-0--|--0--0-------0--|--0--0-0--|--0-0--0----|
B|--0--0--0-0-0-1--|--1--1--1-1-1--|--1--1--1-1--3--|--3--3-3--|--1-1--1----|
G|--0--0--0-0-0-2--|--2--2--2-2-2--|--2--2--2-2--5--|--5--5-5--|--0-0--0----|
D|--0--0--2-2-0-3--|--3--3--3-3-3--|--3--3--2-2--4--|--4--4-4--|--2-2--2----|
A|--2--2--3-3-0-3--|--3--3--3-3-3--|--3--3-------5--|--5--5-5--|--3-3--3----|
E|--3--3--------1--|--1--1--1-1-1--|--1--1----------|----------|------------|

Guitar 2:

Back to chorus

Guitar 2:

Chorus

Outro:

Verse riff

************************************

| /   slide up
| \   slide down
| h   hammer-on
| p   pull-off
| ~   vibrato
| +   harmonic
| x   Mute note
| b   Bend
| pb  Pre-bend
| br  Bend release
| pbr Pre-bend release
| brb Bend release bend

************************************
Добавлено: 15.05.2015
Другие материалы по этой песне:
  • Аккорды и текст

Страница создана 15.05.2015
http://primanota.ru/real-estate/crime-chords.htm
Привет, Гость.
Предлагаем пройти революционный курс по гитаре.
Подарок от PrimaNota.Ru, забирай!