PrimaNota.ru - самый крупный в мире бесплатный архив песенных текстов, аккордов, табулатур и нот


Real Estate - Atlantic City - бас-таба, видео

Регистрация Запомнить меня
Войти через:  Facebook Google Twitter Vk Yandex Mail.ru

Real Estate - Atlantic City - бас-таба, видео

Печатать
Просмотров: 115
-------------------------------------------------------------------------------
                Atlantic City - Real Estate (off Self-Titled) 
-------------------------------------------------------------------------------

Tabbed by: Rbeaver1340 


Intro: 

G|---------------------------------------------------------------------------|
D|---------------------------------------------------------------------------|
A|----------------3-3-3-3-3-3-3-3-----------------5-5-5-5-5-5-5-5------------|
E|3-3-3-3-3-3-3-3-----------------3-3-3-3-3-3-3-3----------------------------|

G|---------------------------------------------------------------------------|
D|---------------------------------------------------------------------------|
A|----------------3-3-3-3-3-3-3-3---------5-5-5-5----------------------------|
E|3-3-3-3-3-3-3-3-----------------3-3-3-3---------3-3-3-3-3-3-3-3------------|


Main Part: (x4) 

G|---------------------------------------------------------------------------|
D|---------------------------------------------------------------------------|
A|----------------3-3-3-3-3-3-3-3-----------------5-5-5-5-5-5-5-5------------|
E|3-3-3-3-3-3-3-3-----------------3-3-3-3-3-3-3-3----------------------------|

G|---------------------------------------------------------------------------|
D|---------------------------------------------------------------------------|
A|----------------3-3-3-3-3-3-3-3---------5-5-5-5----------------------------|
E|3-3-3-3-3-3-3-3-----------------3-3-3-3---------3-3-3-3-3-3-3-3------------|


END: 

G|------|
D|------|
A|------|
E|3-----|



| /  slide up
| \  slide down
| h  hammer-on
| p  pull-off
| ~  vibrato
| +  harmonic
| x  Mute note
===============================================================================
Добавлено: 15.05.2015
Другие материалы по этой песне:
  • Аккорды и текст

Страница создана 15.05.2015
http://primanota.ru/real-estate/atlantic-city-chords.htm
Привет, Гость.
Предлагаем пройти революционный курс по гитаре.
Подарок от PrimaNota.Ru, забирай!