PrimaNota.ru - самый крупный в мире бесплатный архив песенных текстов, аккордов, табулатур и нот


R.D. Burman - Chand Mera Dil - таба, видео

Регистрация Запомнить меня
Войти через:  Facebook Google Twitter Vk Yandex Mail.ru

R.D. Burman - Chand Mera Dil - таба, видео

Печатать
Просмотров: 67
---------0----------------------------0--------------------|
-----------1-0--------------------------1-0----------------|
-----0-2-------0h2-0--------------0-2-------0h2-0----------|
-0-2-----------------2-0------0-2-----------------2-0------|
-------------------------3-0--------------------------3-0--|
-----------------------------------------------------------|

Am         Dm
chand mera dil
G          C
chandni ho tum
C            F
chand se hai door
F         Am
chandni kahan
Am        Dm
laut ke aana
G           C
hai yehi tumko
C          F
ja rahe ho tum
F        Am
jao meri jaan

---------0----------------------------0--------------------|
-----------1-0--------------------------1-0----------------|
-----0-2-------0h2-0--------------0-2-------0h2-0----------|
-0-2-----------------2-0------0-2-----------------2-0------|
-------------------------3-0--------------------------3-0--|
-----------------------------------------------------------|

G            Am
Vaise to hum kadam
F           Am
milenge log sanam
Am      C         G
milega sacha pyar mushkil se
G      Am
dil ki dosti
F         Am
khel nahi koi
Am              C         G
dil se dil hai milna yaar mushkil se
G
yehi to hai sanam
G          C
pyar ka thikana
G                   Am
main hoon main hoon main hoon

Am           Dm
chand mera dil
G          C
chandni ho tum
C            F
chand se hai door
F         Am
chandni kahan
Am        Dm
laut ke aana
G           C
hai yehi tumko
C          F
ja rahe ho tum
F        Am
jao meri jaan
F        Am
jao meri jaan
F        Am
jao meri
Добавлено: 08.05.2016
Другие материалы по этой песне:
  • Аккорды и текст

Страница создана 08.05.2016
http://primanota.ru/rd-burman/chand-mera-dil-chords.htm
Привет, Гость.
Предлагаем пройти революционный курс по гитаре.
Подарок от PrimaNota.Ru, забирай!