PrimaNota.ru - самый крупный в мире бесплатный архив песенных текстов, аккордов, табулатур и нот


Rbd - Solo Quedate En Silencio - текст песни, таба, видео

Регистрация Запомнить меня
Войти через:  Facebook Google Twitter Vk Yandex Mail.ru

Rbd - Solo Quedate En Silencio - текст песни, таба, видео

Печатать
Просмотров: 197
hello this is my first transcribcion hopefully that they like, envienme its doubts to my 
rxx24@hotmail.com

e-----3-----------3----------3------|
B---3----3-----5----5-----5---------|
G--4-4--4-4---4-4--4-4---5-5---5----|
D-----------------------------------|
A------------3----------3-----------|
E-3---------------------------------|

   D                              G            Em         C
e-5/7-5/3---3-3/5-3----|------3-----------3----------3------|
B---------5---------5--|----3----3-----5----5-----5---------|
G----------------------|---4-4--4-4---4-4--4-4---5-5---5----|
D----------------------|------------------------------------|
A----------------------|-------------3----------3-----------|
E----------------------|--3---------------------------------|

  D
|-5/7-5/3---3-3/5-3---|
|---------5---------5-|
|---------------------|
|---------------------|
|---------------------|
|---------------------|

G
te encuentro despierto
B                   Em               A
Me dices lo siento, con una lagrima derramas
G                     B
Me abrazas, me hielo, me pides un beso
Em                  A
Y yo me quedo sin respirar
C                B      Em          C       D
Solo espera un momento, solo dime no es cierto


CORO:
     G                   Em
Solo quédate en silencio cinco minutos
     C                   D
Acaríciame un momento, ven junto a mí
       G                Em
Te daré el último beso, el más profundo
     C                          D            G
Guardare mis sentimientos y me iré lejos de ti

     G           Em         C              D
e-----3-----------3----------3------|-5/7-5/3---3-3/5-3---|
B---3----3-----5----5-----5---------|---------5---------5-|
G--4-4--4-4---4-4--4-4---5-5---5----|---------------------|
D-----------------------------------|---------------------|
A------------3----------3-----------|---------------------|
E-3---------------------------------|---------------------|

G                   B
Tengo tanto miedo y es que no comprendo
Em                    A
Que fue lo que yo he hecho mal
G                     B
Me abrazas, me hielo, me pides un beso
Em                  A
Y yo me quedo sin respirar
C                B      Em               C   D
Solo espera un momento, solo dime no es cierto

CORO:
     G                   Em
Solo quédate en silencio cinco minutos
     C                   D
Acaríciame un momento, ven junto a mí
       G                Em
Te daré el último beso, el más profundo
     C                          D            G
Guardare mis sentimientos y me iré lejos de ti


G y C y rápido


G B

        Am                    C
dame tu mano, devuélveme el aire
      Em                        A
Di que me amas, que no eres culpable
          C                        D
Por lo menos un momento, dime que esto no es cierto

G
Solo quédate en silencio

e-----3-3-3/5-5-5/3-|
B-3-5---------------|
G-------------------|
D-------------------|
A-------------------|
E-------------------|

   C
Acaríciame un momento

e----7-10h12p10----10-12-15-12p10-|
B-10------------12----------------|
G---------------------------------|
D---------------------------------|
A---------------------------------|
E---------------------------------|

      G
Te daré el último beso

e-----3-3--3/5-5-53----|
B-3-5------------------|
G----------------------|
D----------------------|
A----------------------|
E----------------------|
        C                        D           G
guardare mis sentimientos y me iré lejos de ti

CORO:
     G                   Em
Solo quédate en silencio cinco minutos
     C                   D
Acaríciame un momento, ven junto a mí
       G                Em
Te daré el último beso, el más profundo
     C                          D            G
Guardare mis sentimientos y me iré lejos de ti

OUTRO:
   G
e-----3----------|-----3----------|-----3----------|
B--3-------------|--3-------------|--3-------------|
G-4-4---4-4h5p4--|-4-4---4-4h5p4--|-4-4---4-4h5p4--|
D--------------4-|--------------4-|--------------4-|
A----------------|----------------|----------------|
E-3--------------|----------------|----------------|
 (Fade)
Добавлено: 14.04.2012
Другие материалы по этой песне:
  • Аккорды и текст

Страница создана 14.04.2012
http://primanota.ru/rbd/solo-quedate-en-silencio-chords.htm
Привет, Гость.
Предлагаем пройти революционный курс по гитаре.
Подарок от PrimaNota.Ru, забирай!