PrimaNota.ru - самый крупный в мире бесплатный архив песенных текстов, аккордов, табулатур и нот


Razor - Instant Death - текст песни, таба, видео

Регистрация Запомнить меня
Войти через:  Facebook Google Twitter Vk Yandex Mail.ru

Razor - Instant Death - текст песни, таба, видео

Печатать
Просмотров: 117
       Q    E   E  E   E  E  E     Q    E   E  E   E  E  E   
D#||----------------------------|---------------------------|
A#||----------------------------|---------------------------|
F#||*---------------------------|---------------------------|
C#||*--9-------12-----12--------|--9-------12-----12--------|
G#||---7-------10-----10--------|--7-------10-----10--------|
D#||---0----0---0--0------0--0--|--0----0---0--0------0--0--|


                                           PH           
  Q    E   E  E   E  E  E     Q    E  E    H          4x
---------------------------|--------------------------||
---------------------------|--------------------------||
---------------------------|-------------------------*||
--9-------12-----12--------|--7----7--L--------------*||
--7-------10-----10--------|--5----5--5--<>8~---------||
--0----0---0--0------0--0--|--------------------------||


    Q    E   E  E   E  E   E     E   E   E  E  Q    E  E   
------------------------------|---------------------------|
------------------------------|---------------------------|
*-----------------------------|---------------------------|
*--12-------11-----11-----10--|-----10s--9-----9----------|
---10--------9------9------8--|------8s--7-----7----------|
---------0------0------0------|--0----------0-------0--0--|


   Q    E   E  E   E  E   E     E   E   E  E  Q     Q        
-----------------------------|-----------------------------||
-----------------------------|-----------------------------||
-----------------------------|----------------------------*||
--12-------11-----11-----10--|-----10s--9-----4-----------*||
--10--------9------9------8--|------8s--7-----2~----L/-----||
--------0------0------0------|--0----------0---------------||


    Q    E   E  E   E  E   E     E   E   E  E  Q    E  E   
------------------------------|---------------------------|
------------------------------|---------------------------|
*-----------------------------|---------------------------|
*--12-------11-----11-----10--|-----10s--9-----9----------|
---10--------9------9------8--|------8s--7-----7----------|
---------0------0------0------|--0----------0-------0--0--|


   Q    E   E  E   E  E   E     E   E   E  E  Q    Q      4x  W                 
-----------------------------|----------------------------||-------------------|
-----------------------------|----------------------------||-------------------|
-----------------------------|---------------------------*||-------------------|
--12-------11-----11-----10--|-----10s--9-----4----------*||--2----------------|
--10--------9------9------8--|------8s--7-----2----L/-----||--0----------------|
--------0------0------0------|--0----------0--------------||-------------------|


  W                   W                   E  E  E  E  H          
-------------------|-------------------|------------------------|
-------------------|-------------------|------------------------|
-------------------|-------------------|------------------------|
--4----------------|-------------------|------------------------|
--2----------------|--2----------------|--L--5--3-----3~--------|
-------------------|--0----------------|--L--------5------------|


  W                   W                   E  E  E  E  E  E  E  E   
-------------------|-------------------|--------------------------|
-------------------|-------------------|--------------------------|
-------------------|-------------------|--------------------------|
--2----------------|--4----------------|--------------------------|
--0----------------|--2----------------|--2-----------------------|
-------------------|-------------------|--0--0--0--0--0--0--0--0--|


    PH                                                         
    W                    W                   W                 
----------------------|-------------------|-------------------|
----------------------|-------------------|-------------------|
----------------------|-------------------|-------------------|
----------------------|--2----------------|--4----------------|
--<>7~----------------|--0----------------|--2----------------|
----------------------|-------------------|-------------------|


  W                   E  E  E  E  H            W                 
-------------------|------------------------|-------------------|
-------------------|------------------------|-------------------|
-------------------|------------------------|-------------------|
-------------------|------------------------|--2----------------|
--2----------------|--L--5--3-----3~--------|--0----------------|
--0----------------|--L--------5------------|-------------------|


  W                   E  E  E  E  E  E  E  E     Q    H.            
-------------------|--------------------------|--------------------|
-------------------|--------------------------|--------------------|
-------------------|--------------------------|--------------------|
--5----------------|--4-----------------------|--4-----------------|
--3----------------|--2--2--2--2--2--2--2--2--|--2-----------------|
-------------------|--------------------------|--------------------|


    Q    E   E  E   E  E  E     Q    E   E  E   E  E  E   
|----------------------------|---------------------------|
|----------------------------|---------------------------|
|*---------------------------|---------------------------|
|*--9-------12-----12--------|--9-------12-----12--------|
|---7-------10-----10--------|--7-------10-----10--------|
|---0----0---0--0------0--0--|--0----0---0--0------0--0--|


                                           PH           
  Q    E   E  E   E  E  E     Q    E  E    H          4x
---------------------------|--------------------------||
---------------------------|--------------------------||
---------------------------|-------------------------*||
--9-------12-----12--------|--7----7--L--------------*||
--7-------10-----10--------|--5----5--5--<>8~---------||
--0----0---0--0------0--0--|--------------------------||


    Q    E   E  E   E  E   E     E   E   E  E  Q    E  E   
------------------------------|---------------------------|
------------------------------|---------------------------|
*-----------------------------|---------------------------|
*--12-------11-----11-----10--|-----10s--9-----9----------|
---10--------9------9------8--|------8s--7-----7----------|
---------0------0------0------|--0----------0-------0--0--|


   Q    E   E  E   E  E   E     E   E   E  E  Q     Q      4x
-----------------------------|-----------------------------||
-----------------------------|-----------------------------||
-----------------------------|----------------------------*||
--12-------11-----11-----10--|-----10s--9-----4-----------*||
--10--------9------9------8--|------8s--7-----2~----L/-----||
--------0------0------0------|--0----------0---------------||


  W                   W                   W                 
-------------------|-------------------|-------------------|
-------------------|-------------------|-------------------|
-------------------|-------------------|-------------------|
--2----------------|--4----------------|-------------------|
--0----------------|--2----------------|--2----------------|
-------------------|-------------------|--0----------------|


  E  E  E  E  H            W                   W                 
------------------------|-------------------|-------------------|
------------------------|-------------------|-------------------|
------------------------|-------------------|-------------------|
------------------------|--2----------------|--4----------------|
--L--5--3-----3~--------|--0----------------|--2----------------|
--L--------5------------|-------------------|-------------------|


                               PH                                     
  E  E  E  E  E  E  E  E       W                    W                 
--------------------------|----------------------|-------------------|
--------------------------|----------------------|-------------------|
--------------------------|----------------------|-------------------|
--------------------------|----------------------|--2----------------|
--2-----------------------|--<>7~----------------|--0----------------|
--0--0--0--0--0--0--0--0--|----------------------|-------------------|


  W                   W                   E  E  E  E  H          
-------------------|-------------------|------------------------|
-------------------|-------------------|------------------------|
-------------------|-------------------|------------------------|
--4----------------|-------------------|------------------------|
--2----------------|--2----------------|--L--5--3-----3~--------|
-------------------|--0----------------|--L--------5------------|


  W                   W                   E  E  E  E  E  E  E  E   
-------------------|-------------------|--------------------------|
-------------------|-------------------|--------------------------|
-------------------|-------------------|--------------------------|
--2----------------|--5----------------|--4-----------------------|
--0----------------|--3----------------|--2--2--2--2--2--2--2--2--|
-------------------|-------------------|--------------------------|


  Q    H.                E  S S S S  E  S S S S E  E   
--------------------||--------------------------------|
--------------------||--------------------------------|
--------------------||*-------------------------------|
--4-----------------||*--9----------10----------9-----|
--2-----------------||---7-----------8----------7-----|
--------------------||------0-0-0-0-----0-0-0-0----0--|


   E  E  E  E  E  E   Q       E  S S S S  E  S S S S E  E   
---------------------------|-------------------------------|
---------------------------|-------------------------------|
---------------------------|-------------------------------|
--12-----9-----9-----10----|--9----------10----------9-----|
--10-----7-----7------8----|--7-----------8----------7-----|
------0-----0-----0--------|-----0-0-0-0-----0-0-0-0----0--|


   E  E  E  E   H         4x   E  S S S S E  S S S S E   E    
--------------------------||---------------------------------|
--------------------------||---------------------------------|
-------------------------*||*--------------------------------|
--12-----9-----10--------*||*--4----------5----------4---L---|
--10-----7------8---------||---2--2-2-2-2-3--3-3-3-3-2--(2)--|
------0-----0-------------||---------------------------------|


  E   E   Q    Q    Q       E  S S S S E  S S S S E   E    
-------------------------|--------------------------------|
-------------------------|--------------------------------|
-------------------------|--------------------------------|
--7---L---4----4----5----|--4----------5----------4---L---|
--5--(5)--2----2----3----|--2--2-2-2-2-3--3-3-3-3-2--(2)--|
-------------------------|--------------------------------|


  E   E   Q    H         4x    Q     E  S   S   E  S S S S S S  
-------------------------||------------------------------------|
-------------------------||------------------------------------|
------------------------*||*-----------------------------------|
--7---L---4----5--------*||*--12----11--L------10--------------|
--5--(5)--2----3---------||---10-----9--Ls-(8)--8--------------|
-------------------------||-------------0----------0-0-0-0-0-0-|


   Q     E  S   S   E  S S S S S S     Q     E  S   S   E  S S S S S S  
-----------------------------------|-----------------------------------|
-----------------------------------|-----------------------------------|
-----------------------------------|-----------------------------------|
--12----11--L------10--------------|--12----11--L------10--------------|
--10-----9--Ls-(8)--8--------------|--10-----9--Ls-(8)--8--------------|
------------0----------0-0-0-0-0-0-|------------0----------0-0-0-0-0-0-|


   Q     E   E   Q     E   E        Q    E  E  E  S S S S S S  
-------------------------------||-----------------------------|
-------------------------------||-----------------------------|
------------------------------*||*----------------------------|
--12----11--11--14----12--11--*||*--5----4--5--2--------------|
--10-----9--10--12----10---9---||---3----2--3--0--0-0-0-0-0-0-|
-------------------------------||-----------------------------|


  Q    E  E  E  S S S S S S    Q    E  E  E  S S S S S S  
----------------------------|----------------------------|
----------------------------|----------------------------|
----------------------------|----------------------------|
--5----4--5--2--------------|--5----4--5--2--------------|
--3----2--3--0--0-0-0-0-0-0-|--3----2--3--0--0-0-0-0-0-0-|
----------------------------|----------------------------|


  Q    E  E  Q    E  E        S S S S S S S S S S S S S S S S  
-------------------------||-----------------------------------|
-------------------------||-----------------------------------|
------------------------*||*----------------------------------|
--5----4--5--7----5--4--*||*----------------------------------|
--3----2--3--5----3--2---||---2-------------------------------|
-------------------------||---0-0-0-0-0-0-0-0-0-0-0-0-0-0-0-0-|


  E   Q.      Q    Q     8x  Q    H.             
-------------------------||--------------------||
-------------------------||--------------------||
------------------------*||--------------------||
-----11------10----9----*||--------------------||
------9-------8----7-----||--2-----------------||
--0----------------------||--0-----------------||




Duration Legend
---------------
W - whole
H - half
Q - quarter
E - 8th
S - 16th
T - 32nd
X - 64th
. - note dotted
|-n-|  - n-tuplets


Tablature Legend
----------------
L - tied note
x - dead note
g - grace note
(n) - ghost note
> - accentuded note
NH - natural harmonic
AH - artificial harmonic
TH - tapped harmonic
SH - semi harmonic
PH - pitch harmonic
h - hammer on
p - pull off
b - bend
br - bendRelease
pb - preBend
pbr - preBendRelease
brb - bendReleaseBend
\n/ - tremolo bar dip
\n - tremolo bar dive
-/n - tremolo bar Release up
/n\ - tremolo bar inverted dip
/n - tremolo bar return
-\n - tremolo bar Release down
S - shift slide
s - legato slide
/ -  slide into from below or out of upwards
\ -  slide into from above or out of downwards
~ - vibrato
W - wide vibrato
tr - trill
TP - tremolo picking
T - tapping
S - slap
P - pop
< - fade in
^ - brush up
v - brush down
Добавлено: 02.06.2013
Другие материалы по этой песне:
  • Аккорды и текст

Страница создана 16.03.2012
http://primanota.ru/razor/instant-death-chords.htm
Привет, Гость.
Предлагаем пройти революционный курс по гитаре.
Подарок от PrimaNota.Ru, забирай!