PrimaNota.ru - самый крупный в мире бесплатный архив песенных текстов, аккордов, табулатур и нот


Razika - Eg Vetsje - аккорды и текст, видео

Регистрация Запомнить меня
Войти через:  Facebook Google Twitter Vk Yandex Mail.ru

Razika - Eg Vetsje - аккорды и текст, видео

Печатать
Просмотров: 13
Новый альбом группы 'Черный Кузнец' по культовому сериалу 'Сверхъестественное'!
Eg Vetsje
Razika
[Intro/Main riff]

e|--------------------------------------------|
B|--------------------------------------------|
G|---------5----------------------------------|
D|---5-7-8---8-7-8-7------5-7-8-7-5---5-------| x 2
A|-8--------------------8-----------8---8-----|
E|--------------------------------------------|

Bb  Bb  Bb  Bb

Dm                                      Bb
Ka skal eg med dine varme hender når du ikkje vet kem eg e
Dm                                      Bb
Ka skal eg gjøre når hodet mitt brenner og forholdet vårt blir en dårlig klisjé
Gm 
Vi har kommet så langt
Gm           Dm
At følelsene svikter
Dm
Og visner bort
Gm    
Bare sitter og drikker med tomme ansikter 
Dm
Og tenker på
Dm
Det vi skulle ha gjort

Dm                                           Bb
Ka skal eg gjøre når han roper til meg at eg aldri får ut et ord
Dm                                           Bb
Ka skal eg gjøre når når han plutselig innser at eg ikkje e klar til å vokse meg stor
Gm
Så eg sier kaldt
Gm           Dm
Takk for den delte tiden
Gm
Og når han går ut døren
Gm           Dm
Åpner eg den røde vinen

Dm                Am
For du vet, det e sånn det e
Bb
Du kan ikkje leke med det som e virkelighet
Gm                      Bb
Eg føler ikkje noe så eg skammer meg
F                       A
Men glemmer det og holder rundt deg

e|--------------------------------------------|
B|--------------------------------------------|
G|---------5----------------------------------|
D|---5-7-8---8-7-8-7------5-7-8-7-5---5-------| x 2
A|-8--------------------8-----------8---8-----|
E|--------------------------------------------|

Dm                                           Bb
Mitt hjerte hopper når han plutselig sier at det e meg han egentlig vil ha
Dm                                           Bb
Min pust den stopper når han tar meg om halsen og får alt til å virke så bra
Gm
Så eg sier noen ord
Gm                Dm
Som får han til å elske meg
Dm
Og kle av seg
Gm                                                        Dm
Vi blir fanget av hverandre og eg kjenner fort at han har fått
Dm
Hele meg

Dm                Am
For du vet, det e sånn det e
Bb
Du kan ikkje leke med det som e virkelighet
Gm                      Bb
Eg føler ikkje noe så eg skammer meg
F                       A
Men glemmer det og holder rundt deg

Dm                Am
For du vet, det e sånn det e
Bb
Du kan ikkje leke med det som e virkelighet
Gm                      Bb
Eg føler ikkje noe så eg skammer meg
F                       A
Men glemmer det og holder rundt deg

Dm Am Bb Bb

Dm Am Bb Bb

e|----------------------------------------------|
B|----------------------------------------------|
G|---------------5------------------------------|
D|-12~~-14/7-7-7-----8p7h8---8p7-8-8-8-8-8-8----| x2
A|----------------------------------------------|
E|----------------------------------------------|

Dm                Am
For du vet, det e sånn det e
Bb
Vi kan ikkje leke med det som e virkelighet

Dm                Am
For du vet, det e sånn det e
Bb
Vi kan ikkje leke med det som e virkelighet



************************************

| h  Hammer-on
| p  Pull-off
| /  Slide up
| ~  Vibrato

************************************
Добавлено: 25.06.2018
Другие материалы по этой песне:
  • Аккорды и текст

Страница создана 25.06.2018
http://primanota.ru/razika/eg-vetsje-chords.htm
Привет, Гость.
Предлагаем пройти революционный курс по гитаре.
Подарок от PrimaNota.Ru, забирай!