PrimaNota.ru - самый крупный в мире бесплатный архив песенных текстов, аккордов, табулатур и нот


Raymond Scott - Powerhouse - таба, видео

Регистрация Запомнить меня
Войти через:  Facebook Google Twitter Vk Yandex Mail.ru

Raymond Scott - Powerhouse - таба, видео

Печатать
Просмотров: 102
Авторы музыки: Raymond Scott

Song:Powerhouse
Artist:Raymond Scott(http://raymondscott.com)
Transcribed by:Peter Mowitt

Tuning:Standard

Bassline
G|----------------------------------------|
D|----------------------------------------|
A|---------6-7-9-8-5-6-7--6-7-9-8-5-6-7---|
E|--------8--------------8----------------| (Repeat)


Intro Melody(Guitar) enter on 4th time
e|----------------------------|
B|----------------------------|
G|---12-11----10--8-----------|
D|-10-------10--10---10-12----|
A|----------------------------|(x3)
E|----------------------------|

e|-------------------------|
B|-------------------------|
G|----12p11p10\8-----8-----|
D|---------------10----10--|
A|-------------------------|
E|-------------------------|


| /  slide up
| \  slide down
| h  hammer-on
| p  pull-off
| ~  vibrato
| +  harmonic
| x  Mute note
===============================================================================
...more will added.
Добавлено: 29.02.2012
Другие материалы по этой песне:
  • Аккорды и текст

Страница создана 29.02.2012
http://primanota.ru/raymond-scott/powerhouse-chords.htm
Привет, Гость.
Предлагаем пройти революционный курс по гитаре.
Подарок от PrimaNota.Ru, забирай!