PrimaNota.ru - самый крупный в мире бесплатный архив песенных текстов, аккордов, табулатур и нот


Ray Toro - For The Lost And Brave Demo - таба, видео

Регистрация Запомнить меня
Войти через:  Facebook Google Twitter Vk Yandex Mail.ru

Ray Toro - For The Lost And Brave Demo - таба, видео

Печатать
Просмотров: 69
Stave 1:

E|------------------------------|
B|------------------------------|
G|--------------7----7----------|
D|--7----7--10----------10------|    x4
A|------------------------------|
E|------------------------------|

Stave 2:

E|-------------------------------------------|
B|-------------------------------------------|
G|------------------------------7----7--10---|
D|--7--10-----------7--10----10--------------|
A|---------10----10--------------------------|
E|-------------------------------------------|

Stave 3:

E|--13--13----13--13--------12--12----12--12---------10--10--------10--10---------|
B|-------------------13--13--------------------13--13---------------------13--13--|
G|--------------------------------------------------------------------------------|
D|--------------------------------------------------------------------------------|  x2
A|--------------------------------------------------------------------------------|
E|--------------------------------------------------------------------------------|

FTLAB is an amazing song in the full version but I did this to the demo. Ray Toro really outdid himself
on this one though, he is truly amazing.
This is my first tab. I did it by sound and to a song that I'm pretty sure is played on piano. Thanks in
advance for any feedback. :)
Добавлено: 11.08.2015
Вам также может быть интересно:
Другие материалы по этой песне:
  • Аккорды и текст

Страница создана 11.08.2015
http://primanota.ru/ray-toro/for-lost-and-brave-demo-chords.htm
Привет, Гость.
Предлагаем пройти революционный курс по гитаре.
Подарок от PrimaNota.Ru, забирай!