PrimaNota.ru - самый крупный в мире бесплатный архив песенных текстов, аккордов, табулатур и нот


Ray Peterson - Corinna - бас-таба, видео

Регистрация Запомнить меня
Войти через:  Facebook Google Twitter Vk Yandex Mail.ru

Ray Peterson - Corinna - бас-таба, видео

Печатать
Просмотров: 62


Corinna.btab
Ray Peterson
TablEdited by Poppis
Tuning : E A D G 	Time Signature: 4/4

 tempo 130       |       |        |       |       |       |
|--------------------------------|--------------------------------|
|--------------------------------|--------------------------------|
|--------------------------------|--------------------------------|
|--------------------------------|--------------------------------|

 |       |       |       |        |       |       |       |
|--------------------------------|----------------4-------1-------|
|------------------------0-------|2-----------2-------------------|
|0-----------0---4---------------|--------------------------------|
|--------------------------------|--------------------------------|

 |       |       |       |        |       |       |       |
|2-----------2-------------------|----------------2---------------|
|----------------2---------------|--------------------------------|
|------------------------4-------|0-----------0-----------0-------|
|--------------------------------|--------------------------------|

 |       |       |       |        |       |       |       |
|----------------2---------------|----------------2---------------|
|0-----------0-----------4-------|0-----------0-----------0-------|
|--------------------------------|--------------------------------|
|--------------------------------|--------------------------------|

 |       |       |       |        |       |       |       |
|2-----------2-----------2-------|----------------2---------------|
|----------------2---------------|--------------------------------|
|--------------------------------|0-----------0-----------0-------|
|--------------------------------|--------------------------------|

 |       |       |       |        |       |       |       |
|----------------4-------1-------|----------------4-------1-------|
|2-----------2-------------------|2-----------2-------------------|
|--------------------------------|--------------------------------|
|--------------------------------|--------------------------------|

 |       |       |       |        |       |       |       |
|2-----------2-------------------|--------------------------------|
|----------------2---------------|--------------------------------|
|------------------------4-------|0-------------------------------|
|--------------------------------|--------------------------------|

 |       |       |       |        |       |       |       |
|----------------2---------------|------------------------2-------|
|0-----------0-----------4-------|0-----------0---4---------------|
|--------------------------------|--------------------------------|
|--------------------------------|--------------------------------|

 |       |       |       |        |       |       |       |
|--------------------------------|----------------2---------------|
|----------------2---------------|--------------------------------|
|0-----------0-----------4-------|0-----------0-----------0-------|
|--------------------------------|--------------------------------|

 |       |       |       |        |       |       |       |
|----------------4-------1-------|----------------4---------------|
|2-----------2-------------------|2-----------2-----------2-------|
|--------------------------------|--------------------------------|
|--------------------------------|--------------------------------|

 |       |       |       |        |       |       |       |
|2-------------------------------|--------------------------------|
|--------------------------------|--------------------------------|
|--------------------------------|--------------------------------|
|--------------------------------|--------------------------------|

 |       |       |       |        |       |       |       |
|2-----------2-------------------|----------------4-------1-------|
|------------------------0-------|2-----------2-------------------|
|----------------4---------------|--------------------------------|
|--------------------------------|--------------------------------|

 |       |       |       |        |       |       |       |
|2-----------2-----------2-------|--------------------------------|
|----------------2---------------|------------------------2-------|
|--------------------------------|0-----------0---4---------------|
|--------------------------------|--------------------------------|

 |       |       |       |        |       |       |       |
|----------------2---------------|----------------2---------------|
|0-----------0-----------4-------|0-----------0-----------0-------|
|--------------------------------|--------------------------------|
|--------------------------------|--------------------------------|

 |       |       |       |        |       |       |       |
|------------------------2-------|------------------------2-------|
|----------------2---------------|--------------------------------|
|0-----------0-------------------|0-----------0---0---------------|
|--------------------------------|--------------------------------|

 |       |       |       |        |       |       |       |
|----------------4-------1-------|----------------4-------1-------|
|2-----2-----2-------------------|2-----2-----2-------------------|
|--------------------------------|--------------------------------|
|--------------------------------|--------------------------------|

 |       |       |       |        |       |       |       |
|2-----------2-----------2-------|--------------------------------|
|----------------2---------------|--------------------------------|
|--------------------------------|0-------------------------------|
|--------------------------------|--------------------------------|


Transcribe  6.0 transcription http://www.seventhstring.demon.co.uk/
Created with TablEdit http://www.tabledit.com/
http://www.geocities.com/jani_bjorklund/janis.html


Добавлено: 08.01.2014
Другие материалы по этой песне:
  • Аккорды и текст

Страница создана 08.01.2014
http://primanota.ru/ray-peterson/corinna-chords.htm
Привет, Гость.
Предлагаем пройти революционный курс по гитаре.
Подарок от PrimaNota.Ru, забирай!