PrimaNota.ru - самый крупный в мире бесплатный архив песенных текстов, аккордов, табулатур и нот


Rawayana - Fuego Azul - таба, видео

Регистрация Запомнить меня
Войти через:  Facebook Google Twitter Vk Yandex Mail.ru

Rawayana - Fuego Azul - таба, видео

Печатать
Просмотров: 80
Licencia Para Ser Libre(2009)

(Intro)

E/----------------------------------------------------------/
B/----------------------------------------------------------/
G/----------------------------------------------------------/
D/---------9--7-----------5-------------9--7-------------5b-/
A/--------------------5-7---7-5--------------------5-7-7----/
E/-5--5--x--------5-8-----------5--5--x--------5-8----------/ (x2)

(Puente) --> [*empiezan trompetas y percusión]
 
 Am    G  C
E/-------------/
B/-5--5-x3--5--/
G/-5--5-x4--5--/
D/-7--7-x5--5--/
A/-7--7-x5--3--/
E/-5--5-x3-----/

  Am    G   D
E/-------------/
B/-5--5-x3--7--/
G/-5--5-x4--7--/
D/-7--7-x5--7--/
A/-7--7-x5--5--/
E/-5--5-x3-----/

  Am    G  C
E/-------------/
B/-5--5-x3--5--/
G/-5--5-x4--5--/
D/-7--7-x5--5--/
A/-7--7-x5--3--/
E/-5--5-x3-----/

  Am    G   D
E/-------------/
B/-5--5-x3--7--/
G/-5--5-x4--7--/
D/-7--7-x5--7--/
A/-7--7-x5--5--/
E/-5--5-x3-----/

(Verso)  [*Acordes de barra con ritmo de reggae]

        Am        C               D   
Cómo te explico... que eres esencial 
          Am         C           D
que tu y yo juntos... somos el gas 
           Am    C           D
que provocamos... esta situación 
          Am     C          D
sin ti mi nena... yo no funciono 

Woo… 

(Puente) --> [*trompetas y percusión]
  
Am    G  C
E/-------------/
B/-5--5-x3--5--/
G/-5--5-x4--5--/
D/-7--7-x5--5--/
A/-7--7-x5--3--/
E/-5--5-x3-----/

  Am    G   D
E/-------------/
B/-5--5-x3--7--/
G/-5--5-x4--7--/
D/-7--7-x5--7--/
A/-7--7-x5--5--/
E/-5--5-x3-----/

(Pre-Coro)
       Am
Que no comprendo 
      C
menos entiendo 
      D
si todo se puso negro o se me apagó el cerebro 
      Am
te lo digo 
     C
te hablo claro 
       D
que si tu no estas aquí simplemente yo me apago 
       Am
Que no comprendo 
      C
menos entiendo
      D 
si todo se puso negro o se me apagó el cerebro 
      Am
te lo digo 
           C
me quito el ego 
         D
que tu eres la parte azul que se encuentra en nuestro fuego 

(Puente)

   Am    G  C
E/-------------/
B/-5--5-x3--5--/
G/-5--5-x4--5--/
D/-7--7-x5--5--/
A/-7--7-x5--3--/
E/-5--5-x3-----/

  Am    G   D
E/-------------/
B/-5--5-x3--7--/
G/-5--5-x4--7--/
D/-7--7-x5--7--/
A/-7--7-x5--5--/
E/-5--5-x3-----/

  Am    G  C
E/-------------/
B/-5--5-x3--5--/
G/-5--5-x4--5--/
D/-7--7-x5--5--/
A/-7--7-x5--3--/
E/-5--5-x3-----/

  Am    G   D
E/-------------/
B/-5--5-x3--7--/
G/-5--5-x4--7--/
D/-7--7-x5--7--/
A/-7--7-x5--5--/
E/-5--5-x3-----/

(Coro) [*Beto hace los acordes mientras Abeja hace el punteo]

(Guitarra 1)
E/--5----8--5-------------------------------/
B/-------------8--5--------------------5-5--/
G/------------------------5--7-7----7-------/
D/------------------------------------------/
A/------------------------------------------/
E/------------------------------------------/ (x4)

Am      G
Sin ti no puedo 
     C                         
encender un cigarrillo 
        D
eres la parte azul del fuego 
Am      G
Sin ti no quiero 
   C
iluminas mi camino 
        D
eres la parte azul del fuego 

Am      G
Sin ti no puedo 
     C                         
encender un cigarrillo 
        D
eres la parte azul del fuego 
Am      G
Sin ti no quiero 
   C
iluminas mi camino 
        D
eres la parte azul del fuego  

(Riff del Bajo) ---> [*Armónicos en la guitarra]

(x)notas entre paréntesis son armónicos naturales

E/---------------------------------/
B/--------(7)h---------------------/
G/-------------(7)h----------------/
D/------------------(7)h-----------/
A/---------------------------------/
E/---------------------------------/

(Verso) ---> [*Primera parte solo toca el bajo pero aqui estan los acordes]

       Am        C               D   
Cómo te explico... que eres esencial (esencial)
          Am         C           D
que tu y yo juntos... somos el gas  (somos el gas)
           Am    C           D
que provocamos... esta situación 
          Am     C          D
sin ti mi nena... yo no funciono 

(Pre-Coro)
       Am
Que no comprendo 
      C
menos entiendo 
      D
si todo se puso negro o se me apagó el cerebro 
      Am
te lo digo 
     C
te hablo claro 
       D
que si tu no estas aquí simplemente yo me apago 
       Am
Que no comprendo 
      C
menos entiendo
      D 
si todo se puso negro o se me apagó el cerebro 
      Am
te lo digo 
           C
me quito el ego 
         D
que tu eres la parte azul que se encuentra en nuestro fuego 

(Puente)

   Am    G  C
E/-------------/
B/-5--5-x3--5--/
G/-5--5-x4--5--/
D/-7--7-x5--5--/
A/-7--7-x5--3--/
E/-5--5-x3-----/

  Am    G   D
E/-------------/
B/-5--5-x3--7--/
G/-5--5-x4--7--/
D/-7--7-x5--7--/
A/-7--7-x5--5--/
E/-5--5-x3-----/

(Coro) [*Beto acordes,Abeja puntea]

(Guitarra 1)
E/--5----8--5-------------------------------/
B/-------------8--5--------------------5-5--/
G/------------------------5--7-7----7-------/
D/------------------------------------------/
A/------------------------------------------/
E/------------------------------------------/ (x4)

Am      G
Sin ti no puedo 
     C                         
encender un cigarrillo 
        D
eres la parte azul del fuego 
Am      G
Sin ti no quiero 
   C
iluminas mi camino 
        D
eres la parte azul del fuego 

Am      G
Sin ti no puedo 
     C                         
encender un cigarrillo 
        D
eres la parte azul del fuego 
Am      G
Sin ti no quiero 
   C
iluminas mi camino 
        D
eres la parte azul del fuego  

(Riff del Bajo) ---> [*Armónicos en la guitarra]

(x)notas entre paréntesis son armónicos naturales

E/---------------------------------/
B/--------(7)h---------------------/
G/-------------(7)h----------------/
D/------------------(7)h-----------/
A/---------------------------------/
E/---------------------------------/

(Outro)[*Se tocan los siguientes acordes + punteo del intro]

(Guitarra 2)
Am  G  F  G (x2)

Am  B/G  C  D (x2)

(Guitarra 1)
E/----------------------------------------------------------/
B/----------------------------------------------------------/
G/----------------------------------------------------------/
D/---------9--7-----------5-------------9--7-------------5b-/
A/--------------------5-7---7-5--------------------5-7-7----/
E/-5--5--x--------5-8-----------5--5--x--------5-8----------/ (x3)

5 estrellas! saludos desde Los Teques!

www.rawayana.com.ve 
Добавлено: 29.07.2013
Другие материалы по этой песне:
  • Аккорды и текст

Страница создана 29.07.2013
http://primanota.ru/rawayana/fuego-azul-chords.htm
Привет, Гость.
Предлагаем пройти революционный курс по гитаре.
Подарок от PrimaNota.Ru, забирай!