PrimaNota.ru - самый крупный в мире бесплатный архив песенных текстов, аккордов, табулатур и нот


Raveonettes - Sleepwalking - аккорды и текст, видео

Регистрация Запомнить меня
Войти через:  Facebook Google Twitter Vk Yandex Mail.ru

Raveonettes - Sleepwalking - аккорды и текст, видео

Печатать
Просмотров: 102
Sleepwalking
Raveonettes
sleepwalkin

intro:
G# Fm C# A#m (Fm)

Fm C#

Fm
Think you look good today
                            C# A#5 C#
Pretty in black you got it down
Fm
I can't hold my breath so long
                               C# A#5 C#
When you pass me by without a sound
    G#
You got something more to give
                                  C#   A#m
To girls who never thought they'd love
C#   A#m
Love
Fm

Fm
Upon a summer's night
                               C# A#5 C#
I flicked my cig and looked at you
Fm
Feels like it's always been
                              C# A#5 C#
Pretty in black knows what to do

G#
Sleepwalking
Fm
Sleepwalking
C#       A#m
Sleepwalking
Fm C#
(solo)
   Fm
e||--13--11------------------------|------------------------------|
B||------------13--13--11--13--11--|--13--11--13--11--------------|
G||--------------------------------|------------------13----10----|
D||--------------------------------|------------------------------|
A||--------------------------------|------------------------------|
E||--------------------------------|------------------------------|


   C#
e||--13--11----11------------------|----------------|
B||----------------13--11--13--11--|--13--11--13----|
G||--------------------------------|----------------|
D||--------------------------------|----------------|
A||--------------------------------|----------------|
E||--------------------------------|----------------|

   Fm
e||--13--11----11------------------|----------------|
B||----------------13--11--13--11--|--13--11--13----|
G||--------------------------------|----------------|
D||--------------------------------|----------------|
A||--------------------------------|----------------|
E||--------------------------------|----------------|



(Fm)
Then came that beautiful day
                             C# A#5 C#
When our collided in great sparks
Fm
I can't hold my breath so long
                        C# A#5 C#
Something evil in our hearts
    G#
You gave all you had to give
                           C#   A#m
Pretty in black is all you were
C#   A#m
Were

Then goes Fm and C# till the end, but I cound't get the solo cause my cables 

are broken and it's very hard to elude it with just an acoustic

Then the last chords are: F F F D# F (one strum each)
Добавлено: 04.08.2013
Другие материалы по этой песне:
  • Аккорды и текст

Страница создана 28.05.2012
http://primanota.ru/raveonettes/sleepwalking-chords.htm
Привет, Гость.
Предлагаем пройти революционный курс по гитаре.
Подарок от PrimaNota.Ru, забирай!