PrimaNota.ru - самый крупный в мире бесплатный архив песенных текстов, аккордов, табулатур и нот


Raveonettes - Killer In The Streets - таба, видео

Регистрация Запомнить меня
Войти через:  Facebook Google Twitter Vk Yandex Mail.ru

Raveonettes - Killer In The Streets - таба, видео

Печатать
Просмотров: 63
-------------------------------------------------------------------------------
                    Killer in the Streets - The Raveonettes
-------------------------------------------------------------------------------
Tabbed by: emily4011
E-mail: emily6921@sbcglobal.net

Tuning: Standard

Chords throughout entire song: Fm, C#, D#

      Fm                 C#              D#
e|-8----8----8----8--------------9----------------11--------------------------|
B|-9----9----9----9-----------------9-------12---------11---------------------|
G|-10---10---10---10---------10---------13-----13-----------------------------|
D|-10---10---10---10---9/11--------------------------------------------------|
A|-8----8----8----8----------------------------------------------------------|
E|-8----8----8----8----------------------------------------------------------|

3:04 

e|---------------------------------------------------------------------------|
B|---------------------------------------------------------------------------|
G|---------------------------------------------------------------------------|
D|---------------------------------------------------------------------------|
A|---------------------------------------------------------------------------|
E|-15--15--15--15--13--11h13--11h13--11--13----------------------------------|

e|---------------------------------------------------------------------------|
B|---------------------------------------------------------------------------|
G|---------------------------------------------------------------------------|
D|---------------------------------------------------------------------------|
A|--13--13--11--13------13---------------------------------------------------|
E|------------------11-------------------------------------------------------|



************************************

| /   slide up
| \   slide down
| h   hammer-on
| p   pull-off
| ~   vibrato
| +   harmonic
| x   Mute note
| b   Bend
| pb  Pre-bend
| br  Bend release
| pbr Pre-bend release
| brb Bend release bend

************************************
Добавлено: 02.04.2016
Другие материалы по этой песне:
  • Аккорды и текст

Страница создана 02.04.2016
http://primanota.ru/raveonettes/killer-in-streets-chords.htm
Привет, Гость.
Предлагаем пройти революционный курс по гитаре.
Подарок от PrimaNota.Ru, забирай!