PrimaNota.ru - самый крупный в мире бесплатный архив песенных текстов, аккордов, табулатур и нот


Raveonettes - Ignite - текст песни, таба, видео

Регистрация Запомнить меня
Войти через:  Facebook Google Twitter Vk Yandex Mail.ru

Raveonettes - Ignite - текст песни, таба, видео

Печатать
Просмотров: 94
Авторы музыки: Sune Rose Wagner

bass 
A# G# A# H#
A# G# H#

e|---------------------------------|
B|---------------------------------|
G|---------------------------------| 
D|-----------------5-6-5-6-5-5-----| 
A|-8-6-8-6-8-8-6-8-----------------| x2
E|---------------------------------|

A# 
Take what I want now 
G#                   A# H#
Leave the pain with you 
Unmoved by heartache 
Moved away from you 

G#               A# 
What if I could run now 
G#               A# 
What if I could die 
G#               A#            D#              Hm#
What if I could make my heart explode and never cry 

I hate what I am now 
????? in love 
I hate what I have now 
You I'm tired of 

What if I could run now 
What if I could die 
What if I could make my heart explode and never cry 

What if I could free you 
What if you could smile 
What if I could make your heart ignite just for a while 

brige bass: G# H#
e|------------------------------------------3---------------|
B|------------------------------4-----6-----------4-6-------|
G|-----5-----7-----5-----7----5-----5-----5-----5-----8-7---| 
D|---6-----6-----6-----6----5-----5-----5-----5-----------8-| 
A|-6-----6-----6-----6--------------------------------------| x2
E|----------------------------------------------------------|

What if I could run now 
What if I could die 
What if I could make my heart explode and never cry 

What if I could free you 
What if you could smile 
What if I could make your heart ignite just for a while 

What if I could die now 
What if I could go 
I always loved alone 
I never ever showed
Добавлено: 28.01.2014
Другие материалы по этой песне:
  • Аккорды и текст

Страница создана 28.01.2014
http://primanota.ru/raveonettes/ignite-chords.htm
Привет, Гость.
Предлагаем пройти революционный курс по гитаре.
Подарок от PrimaNota.Ru, забирай!