PrimaNota.ru - самый крупный в мире бесплатный архив песенных текстов, аккордов, табулатур и нот


Raven - Chain Saw - таба, видео

Регистрация Запомнить меня
Войти через:  Facebook Google Twitter Vk Yandex Mail.ru

Raven - Chain Saw - таба, видео

Печатать
Просмотров: 78
intro
e----------------------------|
B----------------------------|
G-----------2-5--2-7--2-5----|
D-----------2-5--2-7--2-5--2-|
A--0/12\0---0----0----0----0-| 4x
E----------------------------|

e----------------|
B----------------|
G--2-0-----------|
D-------2--1-0---|
A--------------3-|
E----------------|

repeat this riff during entire intro, twice pausing, the rest let ring the A notes.
PS: listen to the song for better insterpretation


verse
e------------------------------------------------|
B------------------------------------------------|
G--------------------------7------------------5--|
D----7-----5-7-5-7---7-----7----7-----5-7-5-7-5--|
A--0---0-0---------0---0-0----0---0-0------------|
E------------------------------------------------|

bridge
e----------------------------|
B----------------------------|
G---------2-----------2----2-|
D---------2-----------2----2-|
A-0-3-2-0-0---0-3-2-0-0----0-|
E------------------------3---|

e----------------------------|
B----------------------------|
G-------2-----------2----2---|
D-------2-----------2----0---|
A-3-2-0-0-----3-2-0-0--------| 2x
E----------------------------|

repeat bridge riff twice except the last time,
the end amends with chorus (under)

And it's spinning round and roooound!
e--------------------|
B--------------------|
G--------------------|
D--2--------------2--|
A--0-2-3--5--2--3-0--|
E--------------------|

Then returns to the intro riff

e----------------------------|
B----------------------------|
G-----------2-5--2-7--2-5----|
D-----------2-5--2-7--2-5--2-|
A--0/12\0---0----0----0----0-| 2x
E----------------------------|

e----------------|
B----------------|
G--2-0-----------|
D-------2--1-0---|
A--------------3-|
E----------------|

Repeat it all since the verse

pre solo

e----------------------------------------|
B----------------------------------------|
G----------------------------------------|
D----------------------------------------|
A-0/12\0---------------------------5-3-2-|
E---------0--2-0-3-0-2-0-3-0-2-0-2-------|

e---------------------------|
B---------------------------|
G-------------------5----7--|
D-------------------5----7--|
A-----------------3-3--5-5--| 2x
E--0--2-0-3-0-2-0-----------|

starts solo that can't be transcribed because it's 100% improvised
(listen to the song to check solo duration)

after solo starts this phrase

e-------------------------------------------------------------------------|
B--------------9----------------------------------------------------------|
G--------7---9-7-5-----9-9-----11----13-13-13-14-14-14-13-13-11-11-11-13~-|
D--5-2-3-5-5-------5-7-7-7-----11--11-------------------------------------|
A--3----------------------------------------------------------------------|
E-------------------------------------------------------------------------|

e--------------------------------|
B--------------------------------|
G------------7-9~~-----11~~------|
D----------7-------9~~------11~~-|
A----2-3-5-----------------------|
E--3-----------------------------|

e---------------------------------------------------------------------------------|
B---------------------------------------------------------------------------------|
G-13-10-13-13-10-13-10-10-13-10-13-13-10-13-10-14-12-14-14-12-14-12-16-14-16-16~~-|
D---------------------------------------------------------------------------------|
A---------------------------------------------------------------------------------|
E---------------------------------------------------------------------------------|


e----------------------------------------------------------|
B----------------------------------------------------------|
G-------------------------------------------------------5--|
D----7-----5-----4-----2-----------7-----5-----4-----2--5--|
A--0---0-0---0-0---0-0----3-2-3--0---0-0---0-0---0-0----3--| 2X
E----------------------------------------------------------|


e----------------------------------------------------------|
B----------------------------------------------------------|
G----7-----5-----4-----2-----------7-----5-----4-----2--5--|
D----7-----5-----4-----2-----------7-----5-----4-----2--5--|
A--0---0-0---0-0---0-0----3-2-3--0---0-0---0-0---0-0----3--|
E----------------------------------------------------------|

e----------------------------------|
B----------------------------------|
G----7-----5-----4-----2-----------|
D----7-----5-----4-----2---------2-|
A--0---0-0---0-0---0-0----3-2-3--0-|
E----------------------------------|


returns verse and play it all normally until chorus
after that it's all improved 'till your fingers burn

then, repeats intro riff for the last time

e-----------------||
B-----------------||
G--5---4---3----2-||
D--5---4---3----2-||
A--3---2---1----0-||
E-----------------||

hope you enjoy! by: Luiz Fellipe Barros
Добавлено: 02.08.2014
Другие материалы по этой песне:
  • Аккорды и текст

Страница создана 02.08.2014
http://primanota.ru/raven/chain-saw-chords.htm
Привет, Гость.
Предлагаем пройти революционный курс по гитаре.
Подарок от PrimaNota.Ru, забирай!