PrimaNota.ru - самый крупный в мире бесплатный архив песенных текстов, аккордов, табулатур и нот


Raven Black Night - Ancient Mist - таба, видео

Регистрация Запомнить меня
Войти через:  Facebook Google Twitter Vk Yandex Mail.ru

Raven Black Night - Ancient Mist - таба, видео

Печатать
Просмотров: 72
ANCIENT MIST - Raven Black Night

Their site:
http://www.geocities.com/ravenblacknightmusic/raven.html
They aren't a huge band, so don't have an astoundingly detailed site.

My email, should there be any problems:
adqe2all@yahoo.com.au

UPDATE: I fixed the last riff which was written two frets higher
than it should have been. I have rated this tab as intermediate as
Raven play it pretty quick.

A pretty fun song from a good Aussie band! Kind of upbeat old school doom metal/hard rock
A great jamming riff for when you're sitting with your mates and want something cool to play
and shred insanely to

Anyway, down to business

Standard tuning (EADGBe)

KEY TO TAB SCRIPT:
|  /   slide up
|  \   slide down
|  h   hammer-on
|  p   pull-off
|  ~   vibrato
|  +   harmonic
|  x   Mute note
| 0x   'Crunch' the note (hold finger on fret, do not press down)
| (2)  ghost/optional note


INTRO
e|------------------------|
B|------------------------|
G|------------------------|
D|------------------------|
A|-----4---3h4p3-3--1-----|
E|-3-3---3----------------|

Play the intro until the Black Knight starts growling, then play this:

e|------------------------------------------------------------|
B|------------------------------------------------------------|
G|------------------------------------------------------------|
D|------------------------------------------------------------|
A|-2-2----5---2-2----7---2-2----5-----------------------------|
E|-0-0-0x-3---0-0-0x-5---0-0-0x-3--5h6p5-5-3------------------|

Then repeat all these patterns until this solo riff:

e|------------------------------------------------------------|
B|------------------------------------------------------------|
G|------------------------------------------------------------|
D|-5--5--8--8--3--3--6--6-------------------------------------|
A|-3--3--6--6--1--1--4--4-------------------------------------|
E|------------------------------------------------------------|

There is a crazy shred solo here, it goes for ages then theres a bass solo
and a final singing bit (still this riff though), then the riff fades out...

Ok thats it for Ancient Mist, there'll be more Raven to come though as work progresses 
Gothic Black and Blood On My Wings

Have fun!!
Добавлено: 06.04.2012
Другие материалы по этой песне:
  • Аккорды и текст

Страница создана 06.04.2012
http://primanota.ru/raven-black-night/ancient-mist-chords.htm
Привет, Гость.
Предлагаем пройти революционный курс по гитаре.
Подарок от PrimaNota.Ru, забирай!