PrimaNota.ru - самый крупный в мире бесплатный архив песенных текстов, аккордов, табулатур и нот


Raury - Trap Tears - таба, видео

Регистрация Запомнить меня
Войти через:  Facebook Google Twitter Vk Yandex Mail.ru

Raury - Trap Tears - таба, видео

Печатать
Просмотров: 110
-------------------------------------------------------------------------------
                             Trap Tears - Raury
-------------------------------------------------------------------------------
Tabbed by: Sam Knight
E-mail: sknight3637@aol.com

No Capo
Tuning: Standard

There's two guitars throughout this song and this is the most heard part. The other guitar part seems to be
the same chords just some different notes.


e|--------------------------------------------------------------------7-------|
B|----8--------8--------------10---8----7--------7-----------7----------------|
G|----------------------------------------------------------------------------|
D|--------9---------9---------------------9----------9------------9-----------|
A|------------------------7------------------------------7--------------------|
E|----------------------------------------------------------------------------|

e|---------------------------------------------------------------------------------------|
B|-------------------------------------------------7-------------7----------7------------|
G|---9---------9--------------9----------------------------------------------------------|
D|--------------------------------------------9--------------9---------------------------|
A|-------10---------10------------10--------------------9-------------9-------------9----|
E|-----------------------9---------------7-----------------------------------------------|

That basically repeats throughout all of the verses.

Chords:

e|--7--|       
B|--8--|    
G|--9--|
D|--9--|
A|--7--|
E|--x--|

e|--7--|
B|--7--|
G|--9--|
D|--9--|
A|--7--|
E|--x--|

e|--8---|
B|--8---|
G|--9---|
D|--10--|
A|--10--|
E|--8---|

e|--7---|
B|--7---|
G|--8---|
D|--9---|
A|--9--|
E|--7---|

This is the notes for the trap flute during the hook.

e|-----------------------------------------------------------|
B|------------------------------12------10----------10-------|
G|---9------11-----12-----11------------------12-------------|
D|-----------------------------------------------------------|
A|-----------------------------------------------------------|
E|-----------------------------------------------------------|


************************************

| /   slide up
| \   slide down
| h   hammer-on
| p   pull-off
| ~   vibrato
| +   harmonic
| x   Mute note
| b   Bend
| pb  Pre-bend
| br  Bend release
| pbr Pre-bend release
| brb Bend release bend

************************************
Добавлено: 26.04.2016
Другие материалы по этой песне:
  • Аккорды и текст

Страница создана 26.04.2016
http://primanota.ru/raury/trap-tears-chords.htm
Привет, Гость.
Предлагаем пройти революционный курс по гитаре.
Подарок от PrimaNota.Ru, забирай!