PrimaNota.ru - самый крупный в мире бесплатный архив песенных текстов, аккордов, табулатур и нот


Raury - All We Need - таба, видео

Регистрация Запомнить меня
Войти через:  Facebook Google Twitter Vk Yandex Mail.ru

Raury - All We Need - таба, видео

Печатать
Просмотров: 62
-------------------------------------------------------------------------------
                             All we need- Raury
-------------------------------------------------------------------------------
Tabbed by:Jason Iwunze
E-mail:jasoniwunze@ymail.com

Tuning:standard
I believe these are the chords I heard the guitar play in the song. You can suggest improvements to 
this tab in the comments section.
      A#maj       Fmaj          Gmin       Amin
e|-----------6------------1------------3------------5------------------------|
B|---------6------------1------------3------------5--------------------------|
G|-------7------------2------------3------------5----------------------------|
D|-----8------------3------------5------------7------------------------------|
A|---8------------3------------5------------7--------------------------------|
E|-6------------1------------3------------5----------------------------------|


Verse 1: Raury
A#maj                   Fmaj
Don't take my brother, God is our friend
A#maj                     Fmaj
I've walked for miles and I see no end
Gmin               Amin
To the hate, oh, to the hate
Gmin           Amin
And we just, sit and wait on...

Gmin                       Amin
Who can save the world, my friend?
Gmin                       Amin
Who can save the world, my friend?
Gmin                       Amin
Who can save the world, my friend?
Gmin           Amin
All we need is love

Verse 2: adia
A#maj                       Fmaj                 A#maj
Who's gonna save the dyin' lamb from his hunger?

Who's gonna take from the rich
     Fmaj                                    A#maj
And give to the ones who never had a chance?
                         Fmaj     Amaj
Who's gonna wipe the tears?
                      Fmaj
Are we ever gonna overcome the fear?
  
Gmin, Amin x2


Gmin                       Amin
Who can save the world, my friend?
Gmin                       Amin
Who can save the world, my friend?
Gmin                        Amin
Who can save the world, my friend?

Gmin            Amin
All we need is love

[Verse 3: Raury]
(I don't know the names of these chords. But you pluck the strings)


e|----5------------------0-----------------------------------------------|
B|------------5---or-----------------------------------------------------|
G|-3--------5---------5--------------------------------------------------|
D|-----------------------------------------------------------------------|
A|-----------------------------------------------------------------------|
E|-----------------------------------------------------------------------|
 and that keeps repeats through the third verse.


  
 




************************************

| /   slide up
| \   slide down
| h   hammer-on
| p   pull-off
| ~   vibrato
| +   harmonic
| x   Mute note
| b   Bend
| pb  Pre-bend
| br  Bend release
| pbr Pre-bend release
| brb Bend release bend

************************************
Добавлено: 26.04.2016
Вам также может быть интересно:
Другие материалы по этой песне:
  • Аккорды и текст

Страница создана 26.04.2016
http://primanota.ru/raury/all-we-need-chords.htm
Привет, Гость.
Предлагаем пройти революционный курс по гитаре.
Подарок от PrimaNota.Ru, забирай!