PrimaNota.ru - самый крупный в мире бесплатный архив песенных текстов, аккордов, табулатур и нот


Raunchy - Watch Out - текст песни, таба, видео

Регистрация Запомнить меня
Войти через:  Facebook Google Twitter Vk Yandex Mail.ru

Raunchy - Watch Out - текст песни, таба, видео

Печатать
Просмотров: 150
I noticed that the updating of Raunchy's tabs seems stopped since several years ago
So I decide to make a difference.I'm gonna present all Raunchy's song which I can play to you.
They are Watch out, Eyes of a storm, Rumors of worship,Nght prty,The bash,The yeah thing.
So this is Watch out,one of my favourite. I can't make sure they are 100% right,but it sounds good(99% real)
If you got any problems ormore tabs please email me
My email adress 1069040925@qq.com
Made in China,Zhejiang Province by Kasper Tung



Artist: Raunchy
Song: Watch out
Tabbed By: Kasper Tung

Tuning: Drop B (B-F#-B-E-G#-Db)

h - Hammer On
p - Pull Off
~ - Vibrato
* - Palm Mute
x - Muted String

NOTES: (not written by me ,but it's the same)This tab is for playing the song with just one guitar. 
Didn't tab some parts of 
Rhythm Guitar.
This tab is so that you can get the baseline of how the song is played. The rest is up 
you ;)

Some of the note counts aren't exactly how many times you should play a note. They are 
directional.


Intro x 4:

|-------------------------------------------------------------|
|-------------------------------------------------------------|
|----------------3-------------5------------------------------|
|--2-2-2-2-2-2-2---2-2-2-2-2-2---2-2-2-2-2-2-2-7-7-7-5-5-5-5--|
|----------------1-------------3------------------------------|
|--2-2-2-2-2-2-2---2-2-2-2-2-2---2-2-2-2-2-2-2-7-7-7-5-5-5-5--|



VERSE x 2:

|---------------------------------------------------------------------|
|---------------------------------------------------------------------|
|---------------------------------------------------------------------|
|---------------------------------------------------------------------|
|--3---------------3---3-5--3---------------3-5~----------------------|
|----2-0-2---2-0-2---2--------2-0-2---2-0-2---------------------------|

VERSE 2 x 2:


|---------------------------------------------------------------------|
|---------------------------------------------------------------------|
|---------------------------------------------------------------------|
|----------2--------------------------------2-------------------------|
|--3-----------------------3---3-5--3----------------------3-5~-------|
|----2-0-2---2-0-2~--2-0-2---2--------2-0-2---2-0-2--2-0-2------------|


CHORUS x 2:


|---------------------------------------------------------------------|
|---------------------------------------------------------------------|
|-----------------------------------2---------------------------------|
|--5-5--5-5--5-5--5-5---------------2---------------------------------|
|--3-3--3-3--3-3--3-3---5-5--5-5--5-0---------------------------------|
|-----------------------5-5--5-5--5-----------------------------------|


SOLO CHORUS x 1:

|---------------------------------------------------------------------|
|---------------------------------------------------------------------|
|--7-7-7-7-9-12-16~-16-16-17-10---------------------------------------|
|---------------------------------------------------------------------|
|--5-5-5-5-7-10-14~-14-14-15-10---------------------------------------|
|---------------------------------------------------------------------|



|---------------------------------------------------------------------------------------|
|---------------------------------------------------------------------------------------|
|--7-7-7-7-12~--------------------------------------------------------------------------|
|---------------------------------------------------------------------------------------|
|--5-5-5-5-10~--------------------------------------------------------------------------|
|---------------------------------------------------------------------------------------|
      
BRIDGE x 1:

|-----------------------------------------------------------------|
|-----------------------------------------------------------------|
|-----------------------------------------------------------------|
|-----------------------------------------------------------------|
|-----------------------------------------------------------------|
|--5-2-2-2-2-2-2-2-5-2-2-2-2-2-2-2-5-2-2-2-2-2-2-2-5-2-2-2-2-2-2-2|
   ***************************************************************

SOLO CHORUS 2 x 1:

|----------------------------------------------------------------|
|----------------------------------------------------------------|
|--7-7-7-7-9-12-16~-16-16-17-19----------------------------------|
|----------------------------------------------------------------|
|--5-5-5-5-7-10-14~-14-14-15-17----------------------------------|
|----------------------------------------------------------------|

|---------------------------------------------------------------------------------------|
|---------------------------------------------------------------------------------------|
|--7-7-7-7-12~--------------------------------------------------------------------------|
|---------------------------------------------------------------------------------------|
|--5-5-5-5-10~--------------------------------------------------------------------------|
|---------------------------------------------------------------------------------------|

BRIDGE 2 x 1

|-----------------------------------------------------------------|
|-----------------------------------------------------------------|
|-----------------------------------------------------------------|
|-----------------------------------------------------------------|
|-----------------------------------------------------------------|
|--5-5-2---5-5-2---5-5-2---5-5-2-2-2-0----------------------------|
   *****   *****   *****   ***********
Intro x 2

VERSE x 2

VERSE 2 x 2

CHORUS x 2

SOLO CHORUS x 1

BRIDGE x 1

SOLO CHORUS 2 x 1

BRIDGE 2 x 1

BRIDGE 3 :
|--------------------------------------------------|
|--------------------------------------------------|
|--------------------------------------------------|
|--------------------------------------------------|
|--------------------------------------------------|
|--2-2-2-3-2-1-1-1-1-1-1-1-1-1-1-1-1-1-1-1-1-------|
             *******************************    


|-----------------------------|
|-----------------------------|
|--------------8-8-8-8-5-5-5--|
|-----------------------------|
|--------------6-6-6-6-3-3-3--|
|--2-2-2-3-2-1----------------|     Play several times then


      

|----------------------------------|
|----------------------------------|
|--9~------------------------------|
|----------------------------------|
|--7~------------------------------|
|----------------------------------|    


|----------------------------------|
|----------------------------------|
|----------------------------------|
|----------------------------------|
|----------------------------------|
|--2-2-2-2-2-----------------------| 
   * * * * *

SOLO CHORUS x 1

BRIDGE x 1

SOLO CHORUS 2 x 1

BRIDGE 2 x 1

SOLO CHORUS x 1

|-----------------------------------------------------------------|
|-----------------------------------------------------------------|
|-----------------------------------------------------------------|
|-----------------------------------------------------------------|
|-----------------------------------------------------------------|
|--5-5-2---5-5-2---5-5-2---5-5-2-2-2-0-2-2------------------------|
   *****   *****   *****   *********** * *

Me and my ears
Добавлено: 10.06.2016
Вам также может быть интересно:
Другие материалы по этой песне:
  • Аккорды и текст

Страница создана 09.06.2012
http://primanota.ru/raunchy/watch-out-chords.htm
Привет, Гость.
Предлагаем пройти революционный курс по гитаре.
Подарок от PrimaNota.Ru, забирай!