PrimaNota.ru - самый крупный в мире бесплатный архив песенных текстов, аккордов, табулатур и нот


Raunchy - Eyes Of A Storm - таба, видео

Регистрация Запомнить меня
Войти через:  Facebook Google Twitter Vk Yandex Mail.ru

Raunchy - Eyes Of A Storm - таба, видео

Печатать
Просмотров: 36
Artist: Raunchy
Song: Eyes of a storm
Tabbed By: Kasper Tung
Made in China,Zhejiang Province Email Adress:1069040925@qq.com
Tuning: Drop A

h - Hammer On
p - Pull Off
~ - Vibrato
* - Palm Mute
x - Muted String
/ - Slide

NOTES: This tab is for Double Guitar
This tab is so that you can get the baseline of how the song is played. The rest is up 
you ;)

Some of the note counts aren't exactly how many times you should play a note. They are 
directional.
Maybe Not 100% Correct,But sounds great

Guitar 1 Intro x 2:

|------------------------------------------------------------------------------|
|------------------------------------------------------------------------------|
|------------------------------------------------------------------------------|
|------------------------------------------------------------------------------|
|------------10---10---10-9----9---9---9------------10---10---10-12---9---9---9|
|--0-0-0-0-0----0----0-------0---0---0----0-0-0-0-0----0----0-------0---0---0--|
   *********    *    *       *   *   *    *********    *    *       *   *   *

|---------------------------------------------------------------------------------------|
|---------------------------------------------------------------------------------------|
|---------------------------------------------------------------------------------------|
|---------------------------------------------------------------------------------------|
|------------8---8---8-10---5---5-3-5-------------8---8---8-10---5---5-3-5--------------|
|--0-0-0-0-0---0---0------0---0---------0-0-0-0-0---0---0------0---0--------------------|
   *********   *   *      *   *         *********   *   *      *   *   
Guitar 2 Intro (1):

|------------------------------------------------------------------------------------|
|------------------------------------------------------------------------------------|
|------------12---12---12-11---11---11---11-----------12---12---12-14---11---11---11-|
|------------------------------------------------------------------------------------|
|------------10---10---10-9----9----9----9------------10---10---10-12---9----9----9--|
|--0-0-0-0-0----0----0-------0----0----0----0-0-0-0-0----0----0-------0---0----0-----|
   *********    *    *       *    *    *    *********    *    *       *   *    *
|---------------------------------------------------------------------------------------|
|---------------------------------------------------------------------------------------|
|------------10--10--10-7---7---7-5-7-------------10--10--10-12---7---7-5-7-------------|
|---------------------------------------------------------------------------------------|
|------------8---8---8--5---5---5-3-5-------------8---8---8--10---5---5-3-5-------------|
|--0-0-0-0-0---0---0------0---0---------0-0-0-0-0---0---0-------0---0-------------------|
   *********   *   *      *   *         *********   *   *       *   *   
 

|---------------------------------------------------------------------------------------|
|---------------------------------------------------------------------------------------|
|------------15---15---14-----14---14---14-------------15---15---15-17---14---14---14---|
|---------------------------------------------------------------------------------------|
|------------13---13---12-----12---12---12-------------13---13---13-15---12---12---12---|
|--0-0-0-0-0----0----0----0-0----0----0------0-0-0-0-0----0----0-------0----0----0------|
   *********    *    *    * *    *    *      *********    *    *       *    *    *


|---------------------------------------------------------------------------------------|
|---------------------------------------------------------------------------------------|
|------------14---14---14--10--10--10-9-10-----------14---14---14--10--10--10-9-10------|
|---------------------------------------------------------------------------------------|
|------------12---12---12--8---8---8--7-8------------12---12---12--8---8---8--7-8-------|
|--0-0-0-0-0----0----0-------0---0---------0-0-0-0-0----0----0-------0---0--------------|
   *********    *    *       *   *         *********    *    *       *   *   

|-------------------------|
|-------------------------|
|-------------------------|
|-------------------------|
|-------------------------|
|--0----------------------|

 Bridge:(Actually this part is not for play,but I Tabbed it,and it sounds weird.And it's 
different from the verse.)
 注:这里不用弹奏的,而且弹起来听着很奇怪。这段和间奏是有不同的

|---------------------------------------------------------------------------|
|---------------------------------------------------------------------------|
|---------------------------------------------------------------------------|
|---------------------------------------------------------------------------|
|---------------------------------------------------------------------------|
|--13-12-10-10-13-12-10-13-12-10-13-12-13-12-10-10-13-12-15-17-15-17-20-19--|

|---------------------------------------------------------------------------------------|
|---------------------------------------------------------------------------------------|
|---------------------------------------------------------------------------------------|
|---------------------------------------------------------------------------------------|
|---------------------------------------------------------------------------------------|
|--13-12-10-10-13-12-10-13-12-10-13-12--------------------------------------------------|

  VERSE Start: (Double Guitar)

|---------------------------------------------------------------------------------------|
|---------------------------------------------------------------------------------------|
|---------------------------------------------------------------------------------------|
|---------------------------------------------------------------------------------------|
|---------------------------------------------------------------------------------------|
|--13-13-13-13-10-10-10-10-12-12-12-12-8-8-8-10-----------------------------------------|
   ********************************************
 
  VERSE 1 x 2:

|---------------------------------------------------------------------------------------|
|---------------------------------------------------------------------------------------|
|---------------------------------------------------------------------------------------|
|---------------------------------------------------------------------------------------|
|---------------------------------------------------------------------------------------|
|--13-12-10-0-0-0-12-0-10-0-12-0-15-13-12-0-13-12-10-0-0-0-12-0-15-17-15-17-20-19-------|




|-----------------------------------------------------------------------------------------|
|-----------------------------------------------------------------------------------------|
|-----------------------------------------------------------------------------------------|
|-----------------------------------------------------------------------------------------|
|-----------------------------------------------------------------------------------------|
|--13-12-10-0-0-0-12-0-10-0-12-0-15-13-12-0-13-13-13-13-10-10-10-10-12-12-12-12-8-8-8-10--|
                                            ********************************************

  Bridge 2 x 2:

|---------------------------------------------------------------------------------------|
|---------------------------------------------------------------------------------------|
|---------------------------------------------------------------------------------------|
|---------------------------------------------------------------------------------------|
|---------------------------------------------------------------------------------------|
|--/13-/13-0--13--13-12-11-10-13-12-11-10------/10-/10-0--0-10--13-12-11-10-13-12-11-10-|
                  ***********************                       ***********************
  
After Singing "You are still alone for the ride." then
  
  CHORUS x 1:
|----------------------------------------------------------------------------------------|
|----------------------------------------------------------------------------------------|
|----------------------------------------------------------------------------------------|
|----------------------------------------------------------------------------------------|
|-12-12-12-12-12-12-12-12-12-12-12-12-12-12-12-12-10-10-10-10-10-10-10-10-7-7-7-7-7-7-7-7|
|-12-12-12-12-12-12-12-12-12-12-12-12-12-12-12-12-10-10-10-10-10-10-10-10-7-7-7-7-7-7-7-7|


|---------------------------------------------------------------------------------------|
|---------------------------------------------------------------------------------------|
|---------------------------------------------------------------------------------------|
|---------------------------------------------------------------------------------------|
|-8-8-8-8-8-8-8-8-8-8-8-8-8-8-8-8---3-3-3-3-3-3-3-3---7-7-7-7-7-7-7-7-------------------|
|-8-8-8-8-8-8-8-8-8-8-8-8-8-8-8-8---3-3-3-3-3-3-3-3---7-7-7-7-7-7-7-7-------------------|

 Guitar 1 VERSE 1 x 1 And Guitar 2 Play the end of the VERSE 1 together with Guitar 1
 
 VERSE 1 x 2
 
 Bridge 2 x 2
 
 Immediately Play CHORUS x 2

 Then Play The Intro Again
 
 Bridge 3 :
|---------------------------------------------------------------------------------------|
|---------------------------------------------------------------------------------------|
|---------------------------------------------------------------------------------------|
|---------------------------------------------------------------------------------------|
|--0---3---7--7--8--8-8-------3--3--3--3-----7--7--7--7---------------------------------|
|--0---3---7--7--8--8-8-------3--3--3--3-----7--7--7--7---------------------------------|
                    * *


|--------------------------------------------------|
|--------------------------------------------------|
|--------------------------------------------------|
|--------------------------------------------------|
|--3-3-3-3-3-3-3-3--7-7-7-7-7-7-7-7----------------|
|--3-3-3-3-3-3-3-3--7-7-7-7-7-7-7-7----------------|


 CHORUS x 2
 
 OUTRO:

|---------------------------------------------------------------------------------------|
|---------------------------------------------------------------------------------------|
|------------15---15---15-14---14---14---14---------------------------------------------|
|---------------------------------------------------------------------------------------|
|------------13---13---13-12---12---12---12---------------------------------------------|
|--0-0-0-0-0----0----0-------0----0----0------------------------------------------------|
   *********    *    *       *    *    *

 End of song

 Hope you enjoy it
Добавлено: 21.06.2016
Другие материалы по этой песне:
  • Аккорды и текст

Страница создана 21.06.2016
http://primanota.ru/raunchy/eyes-of-a-storm-chords.htm
Привет, Гость.
Предлагаем пройти революционный курс по гитаре.
Подарок от PrimaNota.Ru, забирай!