PrimaNota.ru - самый крупный в мире бесплатный архив песенных текстов, аккордов, табулатур и нот


Raulin Rodriguez - Amor De Mi Vida - текст песни, таба, видео

Регистрация Запомнить меня
Войти через:  Facebook Google Twitter Vk Yandex Mail.ru

Raulin Rodriguez - Amor De Mi Vida - текст песни, таба, видео

Печатать
Просмотров: 169
this song is a classic the chords you see under this are the chords for 1st 
to play rythem use the same chords but just on top like how u would usely play chords good luck

6 5 4 3  2  1
cm (x x x 12 13 11)
Eb (x x x 12 11 11)
Bb (x x x 10 11 10)
Ab (x x x  8  9  8)
Fm (x x x 10  9  8)
G  (x x x 12 12 10)

intro:
1E||:------11~--13-11-10-10^11~--11-10----------------------||
2B||:----13~---------------------------13-11-11-11-11-11-11-||
3G||:--12~--------------------------------------------------||
4D||:-------------------------------------------------------||
5A||:-------------------------------------------------------||
6E||:-------------------------------------------------------||

               dos veces
1E||-------------------:||---------------------------------||
2B||-9-9-11-13-11-9----:||----13-13-13~-13-13-13-11-9------||
3G||----------------12-:||--------------12-12-12-----12----||
4D||-------------------:||-----------------------------13~-||
5A||-------------------:||---------------------------------||
6E||-------------------:||---------------------------------||

              dos veces
1E||----------11--:||:-----11-15-15-15-15-15-15~-----------||
2B||--------13----:||:---13--------------------------------||
3G||------12----12:||:12-----------------------------------||
4D||--------------:||:-------------------------------------||
5A||--------------:||:-------------------------------------||
6E||--------------:||:-------------------------------------||
                           dos veces
1E||10-10-11-10(10)--------11--:||
2B||---------------13~---13----:||
3G||-------------------12----12:||
4D||---------------------------:||
5A||---------------------------:||
6E||---------------------------:||


Cm          Eb         Bb         Ab Fm G
Se fue para siempre el amor de mi vida
Cm          Eb         Bb         Ab Fm G
se fue para siempre el amor de mi vida
Fm                          Cm
que dolor tu dejaste en mi alma
Fm                         Cm
que dolor que destruye mi alma
   G               Cm
y sufrire toda la vida
   G               Cm
y sufrire toda la vida

Fm                       Cm
Ay amor, cuidare de los niños
Fm                        Cm
fue recuerdo que solo me dejaste
       G                 Cm
y te marchaste para el cielo
       G                 Cm
y te marchaste para el cielo
Cm           Eb        Bb      Ab Fm G
Se fue para siempre el amor de mi vida
Cm           Eb        Bb      Ab Fm G
se fue para siempre el amor de mi vida

Cm           Eb        Bb     Ab Fm G
Se fue para siempre el amor de mi vida
Cm           Eb        Bb     Ab Fm G
se fue para siempre el amor de mi vida
Fm                     Cm
se murio el dia en que nacio su hija
Fm                     Cm
no conocio el fruto de su vientre
       G          Cm
y se marcho para siempre
       G          Cm
y se marcho para siempre
Fm                       Cm
Ay amor, cuidare de los niños
Fm                        Cm
fue recuerdo que solo me dejaste
        G                Cm
y te marchaste para el cielo
        G                Cm
y te marchaste para el cielo
Fm                        Cm
que dolor tu dejaste en mi alma
Fm                       Cm
que dolor que destruye mi alma
        G          Cm
y sufrire toda la vida
        G          Cm
y sufrire toda la vida
Cm           Eb        Bb       Ab Fm G
Se fue para siempre el amor de mi vida
Cm           Eb     Bb       Ab Fm G
se fue para siempre el amor de mi vida


www.raulinrodriguez.com
Добавлено: 08.03.2012
Другие материалы по этой песне:
  • Аккорды и текст

Страница создана 08.03.2012
http://primanota.ru/raulin-rodriguez/amor-de-mi-vida-chords.htm
Привет, Гость.
Предлагаем пройти революционный курс по гитаре.
Подарок от PrimaNota.Ru, забирай!