PrimaNota.ru - самый крупный в мире бесплатный архив песенных текстов, аккордов, табулатур и нот


Rauli Badding Somerjoki - Tähdet Tähdet - аккорды и текст, видео

Регистрация Запомнить меня
Войти через:  Facebook Google Twitter Vk Yandex Mail.ru

Rauli Badding Somerjoki - Tähdet Tähdet - аккорды и текст, видео

Печатать
Просмотров: 85
Tähdet Tähdet
Rauli Badding Somerjoki
Intro:

| Dm | Gm | Bb | C |
| Dm | Gm | Bb | A |
| Dm | Dm | Dm | Dm |

 Verse:

| Dm | C | Dm | A | Bb | Gm | Bb | A |
| Dm | C | Dm | A | Bb | Gm | E | A | A |

 Chorus:

| Dm | Dm | Gm | Gm | A | A | Dm | Gm A |
| Dm | Dm | Gm | Gm | A | A | Dm | Gm | Bb | A |
| Dm | Dm | Dm | Dm |



Verse:
Dm                C      Dm                 A
Saapunut luokseni yö on, silmäni luon taivaaseen
Bb             Gm                 Bb        A   
Tumma se katto tähtinä tuikkii on katseensa tutkimaton
Dm                 C      Dm               A
Suunnatton tähtien määrä, häipyen kaukaisuuteen
Bb                Gm             Bb               A
Niin pientä rataa maapallo makaa omaansa ain uudelleen


Chorus:
       Dm                          Gm
Tähdet tähdet, luoksemme tahtoisin pois
       A                            Dm  Gm  A 
Tähdet tähdet, silloin mun helpompi ois
       Dm                       Gm
Tähdet tähdet, enkö jo tulla mä saa
       A                         D   Gm  Bb  A
Tähdet tähdet, ikuisuuksiin ajan taa

| Dm | Dm | Dm | Dm |


Verse:
Dm                C      Dm                 A
Turha on toiveita kantaa turha on haaveiden tie
Bb             Gm                 Bb        A  
Jos jotain antaa tai lemmenrantaa käy santaan se suoraan vain vie
Dm                 C      Dm               A
Aamuun yöntähdet häipyy idässä pian ruskottaa
Bb                Gm             Bb               A
Karvas jää taipuu pää alas taipuu päivä käy uus koittamaan


Chorus:
       Dm                          Gm
Tähdet tähdet, luoksemme tahtoisin pois
       A                            Dm  Gm  A 
Tähdet tähdet, silloin mun helpompi ois
       Dm                       Gm
Tähdet tähdet, enkö jo tulla mä saa
       A                         D   Gm  Bb  A
Tähdet tähdet, ikuisuuksiin ajan taa


Chorus:
       Dm                          Gm
Tähdet tähdet, luoksemme tahtoisin pois
       A                            Dm  Gm  A 
Tähdet tähdet, silloin mun helpompi ois
       Dm                       Gm
Tähdet tähdet, enkö jo tulla mä saa
       A                         D   Gm  Bb  A
Tähdet tähdet, ikuisuuksiin ajan taa


Guitars:

 Intro:

e|---------------------------------------------------------10-9--9p10--10-8--10-------------
H|------------------------------------------10-8--------11-----------------10------8-10-----
G|------------------------7-10-9-7-----7-10------10-9-10-------------------------10----10-7-
D|-------------7--------8----------10-------------------------------------------------------
A|--------8-10---10-9-7---------------------------------------------------------------------
E|-10--10-----------------------------------------------------------------------------------



 1:14

e|-------------------------------9~~2---9/10--10p12-12r10-8-10---10-12-13-15-17-
H|---------------------------------------------------------------10-------------
G|------------------------7-10-9------------------------------------------------
D|-------------7--------8-------------------------------------------------------
A|--------8-10---10-9-7---------------------------------------------------------
E|-10--10-----------------------------------------------------------------------

 1:29

e|-8/10-10-10/8-8-
H|-8/10-10-10/8-8-
Добавлено: 18.04.2016
Другие материалы по этой песне:
  • Аккорды и текст

Страница создана 18.04.2016
http://primanota.ru/rauli-badding-somerjoki/tahdet-tahdet-chords.htm
Привет, Гость.
Предлагаем пройти революционный курс по гитаре.
Подарок от PrimaNota.Ru, забирай!