PrimaNota.ru - самый крупный в мире бесплатный архив песенных текстов, аккордов, табулатур и нот


Raul Seixas - Meu Amigo Pedro - бас-таба, видео

Регистрация Запомнить меня
Войти через:  Facebook Google Twitter Vk Yandex Mail.ru

Raul Seixas - Meu Amigo Pedro - бас-таба, видео

Печатать
Просмотров: 124
Atenção, um,dois...

G -----------------------------------|
D -----------------------------------|
A ------------3----------------------|
E ------333--------------------------|
SOL - DÓ

''...Muitas vezes Pedro você fala...''

G ----------------------------------|
D ----------------------------------| 1x
A ------------3---------------------|
E ------333-------------------------|
SOL - DÓ

G ----------------------------------|
D ----------------------------------|
A ----------------------------------| 1x
E ------000-------------------------|
MI

''...mas tudo acabou onde começou...''

E ----------------------------------|
A ----------------------------------|
D ------------3---------------------|
G ------3-------------3-------------|
SOL - DÓ - SOL
Добавлено: 16.08.2013
Другие материалы по этой песне:
  • Аккорды и текст

Страница создана 16.08.2013
http://primanota.ru/raul-seixas/meu-amigo-pedro-chords.htm
Привет, Гость.
Предлагаем пройти революционный курс по гитаре.
Подарок от PrimaNota.Ru, забирай!