PrimaNota.ru - самый крупный в мире бесплатный архив песенных текстов, аккордов, табулатур и нот


Raul Garcia Zarate - Virgenes Del Sol - таба, видео

Регистрация Запомнить меня
Войти через:  Facebook Google Twitter Vk Yandex Mail.ru

Raul Garcia Zarate - Virgenes Del Sol - таба, видео

Печатать
Просмотров: 90
Уроки эстрадного вокала в Санкт-Петербурге
Hola, somos Julio César y Cristian de 14 años, estudiamos en el
colegio "Uriel Garcia", cursamos el 3ro de secundaria.
Vírgenes del Sol del maestro Raúl García Zárate.
Esta transcripcion es un producto de mucho  esfuerzo y dedicación.

AFINACIÓN:

6ta cuerda  Re
Las demas afinación estándar.


e|------------------------------|
b|-3-3-3-3----------------10----|
g|-2-2-2-2--2-2-2-2-------------|
D|-0-0-0-0--0-0-0-0-------------|
A|----------0-0-0-0-------------|
D|------------------------0-----|

e|-----------------------------------------------------------|
b|--8-10-8-10-8----------------------------------------------|
g|--------------10-7----7-10-7-10-7--------------------------|
D|----------------------------------10-7---7-10-7-10-7-------|
A|-----------------------------------------------------------|
D|--0----0----0----0----0----0----0----0---0----0----0----0--|


e|---------------------------------------|
b|--9/10------9/10-----------------------|
g|-----------------------1/2------1/2----|
D|---------------------------------------|
A|--0---------0---------------0--------0-|
D|-------0---------0-----0---------0-----|


e|--5-----3-5-3-5-3-1-----1---1-------------------------------|
b|--5-----5-5-5-5-5-3-3---3-3-3-3-1---1---1-------------------|
g|--------------------2-----2---2-2-2-2-2-2-2-0/2-------------|
D|----------------------------------3---3---3-3---------------|
A|--0-----0---0---0---0---0---0---3---3---3---3---------------|
D|------------------------------------------------------------|


e|---------------------------------------|
b|--3/10------9/10-----------------------|
g|-----------------------1/2------1/2----|
D|---------------------------------------|
A|--0---------0----------------0--------0|
D|-------0---------0------0---------0----|


e|------------------------------------------------------1------|
b|-3-3--3---1-3-1------3-3--3----1-3-1--------------3---3-3/2--|
g|-3-3--3---2-2-2-2----3-3--3----2-2-2-2----3---3---3---3-2?--2|
D|-3-------------------3------------------5-----4---3----------|
A|-1------1-------3----1-------1-------3----------1---1---0?--4|
D|-----3-------------------3----------------5-5----------------|

e|---------------5-6/5-----5-----------------------------------|
b|---------5-7-8-------8-----6-8-5-6/5---5---------------------|
g|---4-5-7-----------------------------7---5-7---5--------2---0|
D|-7-------------------------------------------8---7?-8-5---3--|
A|-0---0---0---0---0---0---0---0---0-----0---0---0----0---0---0|
D|-------------------------------------------------------------|


e|---------------------------------------------------------|
b|-------------------------------------9/10-----9/10-------|
g|---------------------1/2-----1/2-------------------------|
D|-2-3-0---------------------------------------------------|
A|---0--------5/3/2/3--0-------0-------0--------0----------|
D|-------------------------0-------0--------0--------0-----|


e|---------0-0-3-3-8---10-10-10/8-------8-8-10-8-----------|
b|-1-1-3-3-3-3---------10-10-10---10----8--------10--------|
g|-0-0-0-0------------------------10----9------------------|
D|-----0---3---5---10-------------------10-----------------|
A|-3-------------------0----------8-----10-------8---------|
D|---------------------------------------------------------|


e|--------------------------8-----10-10-10/8-------8-8-10-8----|
b|----------1---3---5----8--------10-10-10---10----8--------10-|
g|-------------------------------------------10----9-----------|
D|--------------------------10---------------------10----------|
A|-0/1/3--3---5---7---10----------0----------8-----10-------8--|
D|-------------------------------------------------------------|


e|-------------------------------------------------------------|
b|-10-10-10-10-10-10-10-10-10-10-10-10/12?--10-10/8?--7/5/6----|
g|------------------------------------------9?-9------6--/7----|
D|-------------------------------------------------------------|
A|-8-----------7-----------0----------------0--0------0--------|
D|-------------------------------------------------------------|


e|---------------------|
b|--7/5/6---7/5/6------|
g|--6--/7---6--/7------|
D|---------------------|
A|--0-------0----------|
D|---------------------|


e|--1-1-1-1-1-1-1-1-1?-3/5-3-3/1------------------------|
b|--3-3-3-3-3-3-3-3-3?-3/5-3-3---3----------------------|
g|-------------------------------2----------------------|
D|-------------------------------0-----------------0----|
A|--1---------------1------------------------0-1-3---1--|
D|----------3--------------------------0-2-4------------|


e|-1-1-1-1-1-1-1-1-----------------1-1-1-1--------------|
b|-3-3-3-3-3-3-3-3-3-3-3-3-3-3-3-3-3-3-3-3-3-3-3-3------|
g|-----------------3-3-3-3-3-3-3-3---------3-3-3-3------|
D|------------------------------------------------------|
A|-1---------------1---------------1--------------------|
D|---------3---------------3---------------3------------|


e|-1-1-1-1------------------------|
b|-3-3-3-3--3-1----------1/3-1----|
g|----------3-2-2--------------2--|
D|--------------3-----------------|
A|-1----------3--------3-------3--|
D|----------3---3-----------------|


e|-13-13-13-13-13-13-13-13-10-10-10-10-10-10-10-10--|
b|--------------------------------------------------|
g|--------------------------------------------------|
D|-12----12----12----12----8-----8-----8-----8------|
A|--------------------------------------------------|
D|--------------------------------------------------|


e|-13-13-13-13-10-10-10-10-13-13-13-13-10-8----8-8-10-8----|
b|------------------------------------------10-8--------10-|
g|---------------------------------------------9-----------|
D|-12----12----8-----8-----12----12----8--6--8-10----------|
A|---------------------------------------------10-------8--|
D|---------------------------------------------------------|


e|-8--8--8--8--8--8--8--8----------------------------|
b|-10-10-10-10-10-10-10-10-10-10-10-10-10-10-10-10---|
g|-10----10----8-----8--10-10-10-10-10-10-10-10-10---|
D|-------------------------10----10----10----10------|
A|---------------------------------------------------|
D|---------------------------------------------------|


e|-9-9-9-9-9-9-9-9---9/10-8------------------------------------|
b|-8-8-8-8-8-8-8-8--------10?--7/8--5/6--5/6?-5/6--------------|
g|-9-9-9-9-9-9-9-9--------10?--8/9--6/7?-6/7--6/7--------------|
D|-7---7---7---7-----------------------------------------------|
A|------------------------8----0----0----0----0----------------|
D|-------------------------------------------------------------|


e|---------------------------------------------|
b|-------------------3-3-------------3-3-------|
g|-----------3-3-3-3-----3-3-3-3-3-3-----3-3---|
D|-0-2-3/5-----------3---------------3---------|
A|---------------5-------5-------5-------5-----|
D|-0-2-3/5---5---------------5-----------------|


e|----------------------------------|
b|---------2-2-------------2-2------|
g|-2-2-2-2-----2-2-2-2-2-2-----2-2--|
D|---------2---------------2--------|
A|-0---4-------4---0---4-------4----|
D|----------------------------------|


e|--------------------------------------|
b|------------3-3-------------3-3-------|
g|----3-3-3-3-----3-3-3-3-3-3-----3-3---|
D|------------3---------------3---------|
A|--------5-------5-------5-------5-----|
D|----5---------------5-----------------|


e|----------------------------------|
b|---------2-2-------------2-2------|
g|-2-2-2-2-----2-2-2-2-2-2-----2-2--|
D|---------2---------------2--------|
A|-0---4-------4---0---4-------4----|
D|----------------------------------|


e|----5--5-5-5-5-5-5-5-5-5-5-5-5-5-5-5-5-5-5-5-5-5-5-5-5-5-5-|
b|----5------------------------------------------------------|
g|-2--2--2---3---0---2-------0-------------------------------|
D|----2------------------3-------2---3---0---2-------0-------|
A|-4---------------------------------------------4-------0---|
D|-----------------------------------------------------------|


e|-5-5-5-5-5-5-5-5-5-5-5-5-5-5-5-5-5-5------|
b|--------------------------------------2---|
g|--------------------------------------0---|
D|------------------------------------------|
A|-1-------0----------------------------0---|
D|-----5-------3---5---2---3---0---2--------|

REPETIR TODO Y TERMINA ASI

e|-------|
b|-2-3---|
g|-0-2---|
D|---0---|
A|-0-----|
D|-------|


Cualquier duda o corrección escribir al correo:
jcsr11@


                       CUSCO ? PERÚ
                           2007
Добавлено: 11.04.2016
Другие материалы по этой песне:

Страница создана 28.03.2012
http://primanota.ru/raul-garcia-zarate/virgenes-del-sol-chords.htm
Привет, Гость.
Предлагаем пройти революционный курс по гитаре.
Подарок от PrimaNota.Ru, забирай!