PrimaNota.ru - самый крупный в мире бесплатный архив песенных текстов, аккордов, табулатур и нот


Raubtier - Sveriges Elit - таба, видео

Регистрация Запомнить меня
Войти через:  Facebook Google Twitter Vk Yandex Mail.ru

Raubtier - Sveriges Elit - таба, видео

Печатать
Просмотров: 141
Here's the basic parts for Raubtiers Sveriges elit.
Tuning are as follows:
E
B
G
D
A
D
(Drop 'D')

Intro:                       x3
E----------------------------   ---------------|
B----------------------------   ---------------|
G----------------------------   ---------------|
D--8-8-6---------------------   -8---1---1--1--|
A--6-6-6--6-6-6-6---6-6-6-6--   -6---1---1--1--|
D------6--6-6-6-6---6-6-6-6--   -----1---1--1--|
        pm.................

-------------------|
-------------------|
--4----------------|
--4---4---2---1----|
--2---4---2---1----|
------4---2---1----|


Vers:
-------------------------------------------------------------------|
-------------------------------------------------------------------|
-------------------------------------------------------------------|
---------------------------6---------------------------------------|
-6--------6--6-6--6--6-6---8----6-----------6--6-6--6--6-6---------|
-6--------6--6-6--6--6-6--------6-----------6--6-6--6--6-6---------|
        pm..............                  pm..............
Själen är såld             till urkraft och våld
----------------------------------------------|
----------------------------------------------|
----------------------------------------------|
-8--------------------------6--1----1---1-----|
-6--6----6--6-6--6--6-6-----8--1----1---1-----|
----6----6--6-6--6--6-6--------1----1---1-----|
        pm..............
Och vart land vi korsar     är stort

Över krossad sten går rovdjursturnén
Från Norrland till Helvetets port

Vi offrar vårt blod, är krigsguden god
Så håller han stålet åt oss
Förstärkarna dör, ty vrålet förgör
Beskåda nu vildmarkens kross

-------------------|
-------------------|
--4----------------|
--4---4---2---1----|
--2---4---2---1----|
------4---2---1----|


Ref:
-----------------------------------------|
-----------------------------------------|
--------------------------4--------------|
---6-----------2----------4---------4----|
---6-----------2----------2---------4----|
---6-----------2--------------------4----|
Se stormen som stilar, Se flammor i skyn,
   Fall ned på knä inför  Sveriges Elit

------------------------------------------------|
------------------------------------------------|
------------------------------------------------|
----2-----------------------------1-------------|
----2-----------------------------1-------------|
----2-----------------------------1-------------|
Och världen skall niga          inför denna syn
Som fostrats utav diesel, blodigt kött och hembränd sprit



The last Ref goes like follows:
-----------------------------------------|
-----------------------------------------|
--------------------------6--------------|
---8-----------4----------6---------6----|
---8-----------4----------4---------6----|
---8-----------4--------------------6----|
Se stormen som stilar, Se flammor i skyn,
   Fall ned på knä inför  Sveriges Elit

-----------------------------------------------------------|
-----------------------------------------------------------|
---------------------------------------------------(3)-----|
----4-----------------------------3----------------(3)-----|
----4-----------------------------3----------------(1)-----|
----4-----------------------------3----------------(3)-----|
Och världen skall niga          inför denna syn
Som fostrats utav diesel, blodigt kött och hembränd sprit


/Gibb
Добавлено: 15.08.2013
Другие материалы по этой песне:
  • Аккорды и текст

Страница создана 15.08.2013
http://primanota.ru/raubtier/sveriges-elit-chords.htm
Привет, Гость.
Предлагаем пройти революционный курс по гитаре.
Подарок от PrimaNota.Ru, забирай!