PrimaNota.ru - самый крупный в мире бесплатный архив песенных текстов, аккордов, табулатур и нот


Ratt - What You Give Is What You Get - текст песни, таба, видео

Регистрация Запомнить меня
Войти через:  Facebook Google Twitter Vk Yandex Mail.ru

Ratt - What You Give Is What You Get - текст песни, таба, видео

Печатать
Просмотров: 100
WHAT YOU GIVE IS WHAT YOU GET
As recorded by Ratt (From the 1985 Album INVASION OF YOUR PRIVACY)
Tablature (Tab) for Guitar
Transcribed by Pedro11Henrique
Words and Music by Juan Croucier
Arranged by Ratt

Gtr I (Eb Ab Db Gb Bb Eb) - 'Guitar I'

Gtr II (Eb Ab Db Gb Bb Eb) - 'Guitar II'

Gtr III (Eb Ab Db Gb Bb Eb) - 'Guitar III'


 Intro
  Moderate Rock Q=110
                  A5     G    F                        A5     G    F
 4/4
  Gtr I
                     PM|    PM         PM------|          PM|    PM
  H    Q  E S S   Q  E E Q  E E   +Q   E E E E E S S   Q  E E Q  E E
|---------------|---------------|--------------------|----------------|
|---------------|---------------|--------------------|----------------|
|---------------|-2------4----2-|-(2)----------------|-2------4----2--|
|---------------|-2------5----3-|-(3)----------------|-2------5----3--|
|---------------|-0--0-0----0---|------0-0-0-0-0-----|-0--0-0----0----|
|-----------0-3-|---------------|----------------0-3-|----------------|


                  C     G/B
       PM|
  +Q   E  E        E     Q   S  S
|---------------------------------|
|------------------1-----0--------|
|-(2)--------------0-----0--------|
|-(3)-----------------------------|
|------0--0--------3-----2--------|
|----------------------------0--3-|
|
| Gtr III
|         |--3--|
|  Q   E  S  S  S  E     Q   S  S
|-----------------19b20-19--------|
|--------------20-----------20----|
|--------19-21-----------------21-|
|---------------------------------|
|---------------------------------|
|---------------------------------|


  A5      G     F
      PM|     PM                    PM-------------|
   Q  E E Q   E  E        +Q        E     E   E  E E S S
|----------------------|----------------------------------|
|----------------------|----------------------------------|
|--2------4------2-----|--(2)-----------------------------|
|--2------5------3-----|--(3)-----------------------------|
|--0--0-0-----0--------|------------0-----0---0--0-0------|
|----------------------|-----------------------------0-3--|
|
|  ~~                                         ~~~~
|  H      Q   E  E        +E   +E   S  S  E  +H
|------------20-19b20==|=(19)r(19)----19------------------|
|-22-------------------|-----------22----20-(20)----------|
|----------------------|----------------------------------|
|----------------------|----------------------------------|
|----------------------|----------------------------------|
|----------------------|----------------------------------|


  A5           G       F                        C       G/B
           PM|       PM                 PM|
  Q        E E   Q   E   E    +Q        E  E      E      Q   S S
|---------------------------|------------------------------------||
|---------------------------|---------------------1------0-------||
|-2--------------4-------2--|-(2)-----------------0------0-------||
|-2--------------5-------3--|-(3)--------------------------------||
|-0--------0-0-------0------|-----------0--0------3------2-------||
|---------------------------|--------------------------------0-3-||
|
| E  Q.         +Q.     +E     S  E  S  E  S  S  +S   S  Q   E
|---------------------------|------------------------------------||
|---------------------------|------------------------------------||
|---19b21======(19)r===(19)-|-19S17-17S16-16S14-(14)-14S12--14---||
|---------------------------|------------------------------------||
|---------------------------|------------------------------------||
|---------------------------|------------------------------------||


 Verse 1
  A5     G    F                        A5     G    F            C G/B
  Gtrs I, II
     PM|    PM         PM------|          PM|    PM         PM|
  Q  E E Q  E E   +Q   E E E E E S S   Q  E E Q  E E   +Q   E E E Q  S S
|---------------|--------------------|---------------|-------------------|
|---------------|--------------------|---------------|----------1-0------|
|-2------4----2-|-(2)----------------|-2------4----2-|-(2)------0-0------|
|-2------5----3-|-(3)----------------|-2------5----3-|-(3)---------------|
|-0--0-0----0---|------0-0-0-0-0-----|-0--0-0----0---|------0-0-3-2------|
|---------------|----------------0-3-|---------------|---------------0-3-|


  A5     G    F                        A5     G    F            C G/BE5
     PM|    PM         PM------|          PM|    PM         PM|
  Q  E E Q  E E   +Q   E E E E E S S   Q  E E Q  E E   +Q   E E E Q  E
|---------------|--------------------|---------------|------------------|
|---------------|--------------------|---------------|----------1-0-----|
|-2------4----2-|-(2)----------------|-2------4----2-|-(2)------0-0--9--|
|-2------5----3-|-(3)----------------|-2------5----3-|-(3)-----------9--|
|-0--0-0----0---|------0-0-0-0-0-----|-0--0-0----0---|------0-0-3-2--7--|
|---------------|----------------0-3-|---------------|------------------|


 Pre-Chorus
  $
      D5E5               D5E5 F5  C5D5
           PM--|
  +E  E Q  E E E E   +E  E Q   Q  E E
|------------------|------------------|
|------------------|------------------|
|-(9)-7-9--------9-|-(9)-7-9--10--5-7-|
|-(9)-7-9--------9-|-(9)-7-9--10--5-7-|
|-(7)-5-7--------7-|-(7)-5-7---8--3-5-|
|----------0-0-0---|------------------|


                F/D                     E
  +H.           E E   +H        +Q.     E
|-------------------|---------------------|
|---------------6-6-|-(6)-------(6)-------|
|-(7)-----------5-5-|-(5)-------(5)-----9-|
|-(7)---------------|-------------------7-|
|--5--5-5-5-5-5-5-5-|-------------------7-|
|-------------------|--5--5-5-5--5--5-5---|
   E  E E E E E E E    E  E E E  E  E E E


      D5E5               D5E5 F5  C5D5                  C5
           PM--|
  +E  E Q  E E E E   +E  E Q   Q  E E   +E  E E E E E E E   +H     +Q.   S S
|------------------|------------------|-------------------|-------------------||
|------------------|------------------|-------------------|-------------------||
|-(9)-7-9--------9-|-(9)-7-9--10--5-7-|-(7)-7-7-7-7-7---5-|-(5)----(5)--------||
|-(7)-7-9--------9-|-(9)-7-9--10--5-7-|-(7)-7-7-7-7-7---5-|-(5)----(5)--------||
|-(7)-5-7--------7-|-(7)-5-7---8--3-5-|-(5)-5-5-5-5-5-0-3-|-(3)----(3)--------||
|----------0-0-0---|------------------|-------------------|--------------0-3--||


 Chorus
  A5     G    F                        A5     G    F            C G/B
     PM|    PM         PM------|          PM|    PM         PM|
  Q  E E Q  E E   +Q   E E E E E S S   Q  E E Q  E E   +Q   E E E Q  S S
|---------------|--------------------|---------------|-------------------|
|---------------|--------------------|---------------|----------1-0------|
|-2------4----2-|-(2)----------------|-2------4----2-|-(2)------0-0------|
|-2------5----3-|-(3)----------------|-2------5----3-|-(3)---------------|
|-0--0-0----0---|------0-0-0-0-0-----|-0--0-0----0---|------0-0-3-2------|
|---------------|----------------0-3-|---------------|---------------0-3-|


  A5     G    F                        A5     G    F            C G/B
     PM|    PM         PM------|          PM|    PM         PM|
  Q  E E Q  E E   +Q   E E E E E S S   Q  E E Q  E E   +Q   E E E E E E
|---------------|--------------------|---------------|--------------3-3--|
|---------------|--------------------|---------------|----------1-0---0--|
|-2------4----2-|-(2)----------------|-2------4----2-|-(2)------0-0---0--|
|-2------5----3-|-(3)----------------|-2------5----3-|-(3)------------0--|
|-0--0-0----0---|------0-0-0-0-0-----|-0--0-0----0---|------0-0-3-2------|
|---------------|----------------0-3-|---------------|--------------0-3--|


  +Q    E  E  E  E  E  E    E  E  E  E  E  S  S  E  E
|-(3)--------10----------|----------------------------|
|-(0)--12-------12-------|-13----12----10-10h12-10----|
|-(0)-----12-------12----|----12----12-------------12-|
|-(0)-----------------12-|----------------------------|
|------------------------|----------------------------|
|-(3)--------------------|----------------------------|


                                To Coda
  F                    Esus4E
   ~~
   Q   E  E E  E  Q     E E Q  +Q.   S S
|-----------8--------|-------------------||
|-----10------10-----|-10---9--(9)-------||
|-10-----10------10--|--9---9--(9)-------||
|--------------------|--9---9--(9)-------||
|--------------------|--7---7--(7)-------||
|--------------------|---------------0-3-||


 Verse 2
  A5     G    F                        A5     G    F            C G/B
     PM|    PM         PM------|          PM|    PM         PM|
  Q  E E Q  E E   +Q   E E E E E S S   Q  E E Q  E E   +Q   E E E Q  S S
|---------------|--------------------|---------------|-------------------|
|---------------|--------------------|---------------|----------1-0------|
|-2------4----2-|-(2)----------------|-2------4----2-|-(2)------0-0------|
|-2------5----3-|-(3)----------------|-2------5----3-|-(3)---------------|
|-0--0-0----0---|------0-0-0-0-0-----|-0--0-0----0---|------0-0-3-2------|
|---------------|----------------0-3-|---------------|---------------0-3-|


                                                         D.S. al Coda
  A5     G    F                        A5     G    F            C G/BE5
     PM|    PM         PM------|          PM|    PM         PM|
  Q  E E Q  E E   +Q   E E E E E S S   Q  E E Q  E E   +Q   E E E Q  E
|---------------|--------------------|---------------|------------------||
|---------------|--------------------|---------------|----------1-0-----||
|-2------4----2-|-(2)----------------|-2------4----2-|-(2)------0-0--9--||
|-2------5----3-|-(3)----------------|-2------5----3-|-(3)-----------9--||
|-0--0-0----0---|------0-0-0-0-0-----|-0--0-0----0---|------0-0-3-2--7--||
|---------------|----------------0-3-|---------------|------------------||


 Guitar Solo - Warren
  &
  A5       G                F
  Gtrs I, II
       PM|             PM                PM------|
  Q    E E  Q          E     E    +Q     E E E E E S S
|-------------------------------|----------------------|
|-------------------------------|----------------------|
|-2---------4----------------2--|-(2)------------------|
|-2---------5----------------3--|-(3)------------------|
|-0----0-0-------------0--------|--------0-0-0-0-0-----|
|-------------------------------|------------------0-3-|
|
| Gtr III
| H        +E     +E  +E    +E     W
|-------------------------------|----------------------|
|-------------------------------|----------------------|
|-7b9r=====(7)b8==(7)r(7)b8-(7)-|--7b9=================|
|-------------------------------|----------------------|
|-------------------------------|----------------------|
|-------------------------------|----------------------|


  A5         G     F            C   G/B
        PM-|     PM         PM|
   Q    E  E Q   E E   +Q   E E  E  Q  S S
|--------------------|---------------------|
|--------------------|-----------1--0------|
|--2---------4-----2-|-(2)-------0--0------|
|--2---------5-----3-|-(3)-----------------|
|--0----0--0-----0---|------0-0--3--2------|
|--------------------|-----------------0-3-|
|
| +Q   +Q    E Q   E    H        Q.    E
|--------------------|---------------------|
|--------------------|----------10-----8---|
|-(7)r=(7)---5-4---5S|==9------------------|
|--------------------|---------------------|
|--------------------|---------------------|
|--------------------|---------------------|


  A5          G        F
          PM|        PM            PM---------------|
  Q       E E  Q     E E   +Q      E        E  E  E  E  S S
|------------------------|----------------------------------|
|------------------------|----------------------------------|
|-2------------4-------2-|-(2)------------------------------|
|-2------------5-------3-|-(3)------------------------------|
|-0-------0-0--------0---|---------0--------0--0--0--0------|
|------------------------|------------------------------0-3-|
|
|                                  |--3--|
| S  S Q.     +E  E  E E    E   E  S  S  S  E  E  E  E  E
|---10------------8----8S|=12-------------------------------|
|-8----8------(8)---12---|-----15-13h15p13-12-13-12---------|
|------------------------|--------------------------12-12S==|
|------------------------|----------------------------------|
|------------------------|----------------------------------|
|------------------------|----------------------------------|


  A5      G       F                C G/B G
      PM|       PM             PM|
   Q  E E   Q   E  E   +Q      E E E E E   E
|--------------------|-----------------3---3-----|
|--------------------|-------------1-0-----0-----|
|--2--------4------2-|-(2)---------0-0-----0-----|
|--2--------5------3-|-(3)-----------------0-----|
|--0--0-0-------0----|---------0-0-3-2-----------|
|--------------------|-----------------0---3-----|
|
|  H       +Q.     E    E   E  H       E   S  S
|--------------------|---------------------------|
|--------------------|-----------------------22--|
|-14------(14)----16-|-17--16-14---------/21-----|
|--------------------|---------------------------|
|--------------------|---------------------------|
|--------------------|---------------------------|


  +Q       E        E   E      E  E  E
|-(3)------------------10-----------------|
|-(0)-----12------------------12----------|
|-(0)--------------12------------12-------|
|-(0)-------------------------------12----|
|-----------------------------------------|
|-(3)-------------------------------------|
|
|  Q      +E       +E   Q.           S  S
|--------------------------------------20-|
|-20b22r=(20)b21==(20)-21tr22-------22----|
|-----------------------------------------|
|-----------------------------------------|
|-----------------------------------------|
|-----------------------------------------|


   E  E        E        E        E        S  S  E  E
|-----------------------------------------------------|
|-13----------12----------------10-------10h12-10-----|
|----12----------------12-------------------------12--|
|-----------------------------------------------------|
|-----------------------------------------------------|
|-----------------------------------------------------|
|
|     |--3--|  |------6-------|
|  E  S  S  S  S  S  S  S  S  S  T  T  S  E     E  E
|-----------------------------------------------------|
|-22-22-20----20--------------------------------------|
|----------21----21p20h21p20h21p19--------------------|
|----------------------------------22p19-22----21-22--|
|-----------------------------------------------------|
|-----------------------------------------------------|


  F
   ~~~~~~
   Q           E  E          E   E  Q
|----------------------------8----------------|
|-------------10----------------10------------|
|-10-------------10----------------10---------|
|---------------------------------------------|
|---------------------------------------------|
|---------------------------------------------|
|
|  E      +Q      S  S      +Q.        +S   S
|----------------20-22b24==(22)r======(22)-20-|
|---------------------------------------------|
|-21b22==(21)---------------------------------|
|---------------------------------------------|
|---------------------------------------------|
|---------------------------------------------|


  Esus4E
   E E  Q  +Q.    S S   W
|---------------------|--------------------------------------||
|-10----9--(9)--------|--------------------------------------||
|--9----9--(9)--------|--------------------------------------||
|--9----9--(9)--------|--------------------------------------||
|--7----7--(7)--------|--------------------------------------||
|-----------------0-3-|--------------------------------------||
|
|       ~~
|                            |-3-| |---5---|
|  E E  H       E E     E    S S S S S S S S S S S S E   S S
|-----------------5---|------5-------------------------------||
|-22---21-------------|-8b10---8p5-8p5---5-------------------||
|---------------------|----------------8---8-7-5-7-5-7b9-----||
|---------------------|--------------------------------------||
|---------------------|--------------------------------------||
|---------------------|----------------------------------0-3-||


   Out-Chorus
    A5     G    F                        A5     G    F            C G/B
       PM|    PM         PM------|          PM|    PM         PM|
    Q  E E Q  E E   +Q   E E E E E S S   Q  E E Q  E E   +Q   E E E Q  S S   4x
||----------------|--------------------|---------------|---------------------||
||o---------------|--------------------|---------------|----------1-0-------o||
||--2------4----2-|-(2)----------------|-2------4----2-|-(2)------0-0--------||
||--2------5----3-|-(3)----------------|-2------5----3-|-(3)-----------------||
||o-0--0-0----0---|------0-0-0-0-0-----|-0--0-0----0---|------0-0-3-2-------o||
||----------------|----------------0-3-|---------------|---------------0-3---||


Duration Legend
---------------
W - whole; H - half; Q - quarter; E - 8th; S - 16th; T - 32nd; X - 64th; a - acciaccatura
+ - note tied to previous; . - note dotted; .. - note double dotted
Uncapitalized letters represent notes that are staccato (1/2 duration)
Irregular groupings are notated above the duration line
Duration letters will always appear directly above the note/fret number it represents the
duration for.  Duration letters with no fret number below them represent rests.  Multi-
bar rests are notated in the form Wxn, where n is the number of bars to rest for.  Low
melody durations appear below the staff

Tablature Legend
----------------
 h   - hammer-on
 p   - pull-off
 b   - bend
 pb  - pre-bend
 r   - bend release (if no number after the r, then release immediately)
 /\  - slide into or out of (from/to "nowhere")
 s   - legato slide
 S   - shift slide
 - natural harmonic
[n]  - artificial harmonic
n(n) - tapped harmonic
 ~   - vibrato
 tr  - trill
 T   - tap
 TP  - trem. picking
 PM  - palm muting
\n/  - tremolo bar dip; n = amount to dip
 \n  - tremolo bar down
 n/  - tremolo bar up
/n\  - tremolo bar inverted dip
 =   - hold bend; also acts as connecting device for hammers/pulls
 <> - volume swell (louder/softer)
 x   - on rhythm slash represents muted slash
 o   - on rhythm slash represents single note slash

Misc Legend
-----------
 |  - bar
||  - double bar
||o - repeat start
o|| - repeat end
*|  - double bar (ending)
 :  - bar (freetime)
 $  - Segno
 &  - Coda
Tempo markers -  = BPM(8/16=s8/s16), where s8 = swing 8ths, s16 = swing 16ths
Добавлено: 26.10.2015
Другие материалы по этой песне:

Страница создана 12.03.2012
http://primanota.ru/ratt/what-you-give-is-what-you-get-chords.htm
Привет, Гость.
Предлагаем пройти революционный курс по гитаре.
Подарок от PrimaNota.Ru, забирай!