PrimaNota.ru - самый крупный в мире бесплатный архив песенных текстов, аккордов, табулатур и нот


Ratt - Scene Of The Crime - текст песни, бас-таба, видео

Регистрация Запомнить меня
Войти через:  Facebook Google Twitter Vk Yandex Mail.ru

Ratt - Scene Of The Crime - текст песни, бас-таба, видео

Печатать
Просмотров: 101
-------------------------------------------------------------------------------
                             Scene Of The Crime - Ratt
-------------------------------------------------------------------------------

From the Album: Out Of The Cellar (1984)

Tabbed by: ChrisT

Tuning: Eb, Ab, Db, Gb

Intro
Gb|---------------------------------------------------------------------|
Db|---------------------------------------------------------------------|
Ab|---5-5-----------------------------5-5-------------------------------|
Eb|-------------------3-3-----------------------------5-5---------------|

                                                                      I wanna...
Gb|----------------------------------------------------------------------------|
Db|----------------------------------------------------------------------------|
Ab|---5-5----------------------------------------------------------------------|
Eb|-------------------3-3-------------2-2-------------5-5-----5-5-5-5-5-5-5-5--|

Verse 1                                                        Repeat x4
Gb|---------------------------------------------------------------------|
Db|o-------------------------------------------------------------------o|
Ab|o--5-5-5-5-5-5-5-5--------------------------------------------------o|
Eb|-------------------3-3-3-3-3-3-3-3-1-1-1-1-1-1-1-1-5-5-5-5-5-5-5-5---|

Chorus
Gb|-----------------------------------------------------------------------|
Db|-----------------------------------------------------------------------|
Ab|--2-2-2-2-2-2-2-2-2-2-2-2-2-2-2-2-2-2-2-2-2-2-2-2-2-2-2-2-2-2-/14-12\--|
Eb|-----------------------------------------------------------------------|

                                                           Got me a....
Gb|--------------------------------------------------------------------|
Db|--------------------------------------------------------------------|
Ab|------------------------------------------------------------0-2-4---|
Eb|--0-0-0-0-0-0-0-0-0-0-0-0-0-0-0-0-0-0-0-0-0-0-0-0-0-0-0-2-4---------|

Verse 2
Gb|---------------------------------------------------------------------|
Db|o-------------------------------------------------------------------o|
Ab|o--5-5-5-5-5-5-5-5--------------------------------------------------o|
Eb|-------------------3-3-3-3-3-3-3-3-1-1-1-1-1-1-1-1-5-5-5-5-5-5-5-5---|

Chorus
Gb|--------------------------------------------------------------------------|
Db|o-------------------------------------------------------------------------|
Ab|o--2-2-2-2-2-2-2-2-2-2-2-2-2-2-2-2-2-2-2-2-2-2-2-2-2-2-2-2-/14-12-10------|
Eb|---------------------------------------------------------------------12---|

                                                           Well I know...
Gb|---------------------------------------------------------------------|
Db|--------------------------------------------------------2-0---------o|
Ab|------------------------------------------------------------4-2-0---o|
Eb|--0-0-0-0-0-0-0-0-0-0-0-0-0-0-0-0-0-0-0-0-0-0-0-0-0-0-0--------------|

Bridge
Gb|-------------------------------------------------------------------------|
Db|o-----------------------------------------------------------------------o|
Ab|o-----------------------------------------------------------------------o|
Eb|---0-0-0-0-0-0-0-2---3-3-3-3-3-3-3-7---5-5-5-5-5-5-5-2---3-3-3-3-3---2---|

Solo
Gb|---------------------------------------------------------------------|
Db|o-------------------------------------------------------------------o|
Ab|o--5-5-5-5-5-5-5-5--------------------------------------------------o|
Eb|-------------------3-3-3-3-3-3-3-3-1-1-1-1-1-1-1-1-5-5-5-5-5-5-5-5---|

Chorus
Gb|--------------------------------------------------------------------------|
Db|o-------------------------------------------------------------------------|
Ab|o--2-2-2-2-2-2-2-2-2-2-2-2-2-2-2-2-2-2-2-2-2-2-2-2-2-2-2-2-/14-12-10------|
Eb|---------------------------------------------------------------------12---|

                                                       Fill 1st time only
Gb|----------------------------------------------------------------------|
Db|-------------------------------------------------------2-4-2-0-------o|
Ab|---------------------------------------------------------------4-2---o|
Eb|--0-0-0-0-0-0-0-0-0-0-0-0-0-0-0-0-0-0-0-0-0-0-0-0-0-0-(0-0-0-0-0-0)---|

                                                                   Repeat x6
Gb|-------------------------------------------------------------------------|
Db|o-----------------------------------------------------------------------o|
Ab|o-----------------------------------------------------------------------o|
Eb|---0-0-0-0-0-0-0-2---3-3-3-3-3-3-3-7---5-5-5-5-5-5-5-2---3-3-3-3-3---2---|

Gb|--------------------------------------------------------------------------|
Db|o-------------------------------------------------------------------------|
Ab|o--2-2-2-2-2-2-2-2-2-2-2-2-2-2-2-2-2-2-2-2-2-2-2-2-2-2-2-2-/14-12-10------|
Eb|---------------------------------------------------------------------12---|

                                                       Fill 1st time only
Gb|----------------------------------------------------------------------|
Db|-------------------------------------------------------2-4-2-0-------o|
Ab|---------------------------------------------------------------4-2---o|
Eb|--0-0-0-0-0-0-0-0-0-0-0-0-0-0-0-0-0-0-0-0-0-0-0-0-0-0-(0-0-0-0-0-0)---|

Outro (fades)
Gb|---------------------------------------------------------------------|
Db|---------------------------------------------------------------------|
Ab|---5-5-----5-5---------------------5-5-----5-5-----------------------|
Eb|-------------------3-3-----3-3--------------------5-5-----5-5--------|
 
Gb|---------------------------------------------------------------------|
Db|---------------------------------------------------------------------|
Ab|---5-5-----5-5-------------------------------------------------------|
Eb|-------------------3-3-----3-3-----2-2-----2-2----5-5----------------|


| /  slide up
| \  slide down
| h  hammer-on
| p  pull-off
| ~  vibrato
| +  harmonic
| x  Mute note
===============================================================================

Добавлено: 03.08.2013
Другие материалы по этой песне:

Страница создана 06.05.2012
http://primanota.ru/ratt/scene-of-the-crime-chords.htm
Привет, Гость.
Предлагаем пройти революционный курс по гитаре.
Подарок от PrimaNota.Ru, забирай!