PrimaNota.ru - самый крупный в мире бесплатный архив песенных текстов, аккордов, табулатур и нот


Ratt - No Surprise - текст песни, таба, видео

Регистрация Запомнить меня
Войти через:  Facebook Google Twitter Vk Yandex Mail.ru

Ratt - No Surprise - текст песни, таба, видео

Печатать
Просмотров: 130
NO SURPRISE
As recorded by Ratt (From the 1988 Album REACH FOR THE SKY)
Tablature (Tab) for Guitar
Transcribed by Pedro11Henrique
Words by Stephen Pearcy
Music by Warren DeMartini
Arranged by Ratt

Gtr I (E A D G B E) - 'Guitar I'

Gtr II (E A D G B E) - 'Guitar II'

Gtr III (E A D G B E) - 'Guitar III'


 Intro
  Moderate Rock Q=105
  N.C.
 4/4
  Gtr I
  W          W          Q  H.
|----------|----------|----------|
|----------|----------|----x\----|
|----------|----------|----------|
|----------|----------|----------|
|----------|----------|----------|
|----------|----------|----------|


  E  A5       G5           A               E  A5
  Q  E E Q  E E   +H     E S +S  +S  S E   Q  E E Q  E E
|-------------3-|-(3)----3---------------|---------------|
|-------------3-|-(3)----3-2-(2)-(2)p0---|---------------|
|-1--2---4--4---|----------2-(2)-(2)p0---|-1--2---4--4-2-|
|-2--2---2--2---|----------------------2-|-2--2---2--2-2-|
|---------------|------------------------|---------------|
|------0--------|------------------------|------0--------|


        G5     A5G5    E  A5       G5           A
  +Q.   E +Q   S S E   Q  E E Q  E E   +H     E S +S  +S  S E
|--------------------|-0-----------3-|-(3)----3----------------|
|--------------------|-0-----------3-|-(3)----3-2-(2)-(2)p0----|
|-(2)---0-(0)--2p0---|-1--2---4--4---|----------2-(2)-(2)p0----|
|-(2)---0-(0)--2p0---|----2---2--2---|----------------------2--|
|------------------0-|---------------|-------------------------|
|--------------------|------0--------|-------------------------|


  E  A5  E5   A5          G5     A5G5    E  A5  E5   G5
  Q  E E Q  E E   +E  E E E +Q   S S E   Q  E E Q  E E
|---------------|----------------------|-0-----------3-|
|---------------|----------------------|-0-----------3-|
|-1--2---4--4-2-|-(2)-2---0-(0)--2p0---|-1--2---4--4---|
|-2--2---2--2-2-|-(2)-2---0-(0)--2p0---|----2---2--2---|
|---------------|-------3--------------|---------------|
|------0--------|--------------------0-|------0--------|


       N.C.              E  A5  E5   A5          G5
                 |-3-|
  +Q   E E E E E S S S   Q  E E Q  E E   +E  E E E +H
|-(3)--0-0-------------|-0-------------|------------------||
|-(3)------3-3---------|-0-------------|------------------||
|--------------2-2-0---|-1--2---4--4---|---------0-(0)----||
|--------------------2-|----2---2--2-2-|-(2)-2---0-(0)----||
|----------------------|-------------0-|-(0)-0-3----------||
|----------------------|------0--------|------------------||


 Verse 1
                    D5               A
  Q  E E E. S +S  S E   +H.      +S  E S
|---------------------|------------------|
|-------------------3-|-(3)------(3)-2-2-|
|-------------------2-|-(2)------(2)-2-2-|
|--------2--2-(2)-x---|------------------|
|---------------------|------------------|
|-0--0-0--------------|------------------|


  E              A5            G5
  E E E E E. S E E   +E  E S S E +Q   S E.
|------------------|-----------------------|
|-0----------------|-----------------------|
|-1--------------9-|-(9)---9-9-7-(7)--7-7--|
|----------------7-|-(7)---7-7-5-(5)--5-5--|
|------------------|-----0-----------------|
|---0-0-0-0--0-----|-----------------------|


  E5             D5             A    E5             A5           G5
  E E E E E. S E E   +H.      S E.   E E E E E. S E E   +Q   S S E +H
|------------------|---------------|------------------|-------------------||
|------------------|------------2--|------------------|-------------------||
|-4---4---4--4---2-|-(2)--------2--|-4---4---4--4---9-|-(9)--9-9-7-(7)----||
|-2---2---2--2---0-|-(0)--------2--|-2---2---2--2---7-|-(7)--7-7-5-(5)----||
|------------------|---------------|------------------|-------------------||
|---0---0----------|---------------|---0---0----------|-------------------||


 Chorus
  E  A5  E5   G5           A               E  A5  E5   A5       G5
  Q  E E Q  E E   +H     E S +S  +S  S E   Q  E E Q  E E   +Q   E E +Q   Q
|-------------3-|-(3)----3---------------|---------------|-------------------|
|-0-----------3-|-(3)----3-2-(2)-(2)p0---|-0-------------|-------------------|
|-1--2---4--4---|----------2-(2)-(2)p0---|-1--2---4--4---|------0-0-(0)--0---|
|-2--2---2--2---|----------------------2-|-2--2---2--2-2-|-(2)--0-0-(0)--0---|
|---------------|------------------------|-------------0-|-(0)---------------|
|------0--------|------------------------|------0--------|-------------------|


  E  A5  E5   G5       D5             E  A5  E5   A5          G5
  Q  E E Q  E E   +Q   Q   Q    Q     Q  E E Q  E E   +E  E E E +H
|-------------3-|-(3)--0--(0)--(0)--|---------------|------------------||
|-0-----------3-|-(3)------3---(3)--|-0-------------|------------------||
|-1--2---4--4---|---------------2---|-1--2---4--4-2-|-(2)-2---0-(0)----||
|-2--2---2--2---|-------------------|-2--2---2--2-2-|-(2)-2---0-(0)----||
|---------------|-------------------|-------------0-|-(0)-0-3----------||
|------0--------|-------------------|------0--------|------------------||


 Verse 2
                    D5               A
  Q  E E E. S +S  S E   +H.      +S  E S
|---------------------|------------------|
|-------------------3-|-(3)------(3)-2-2-|
|-------------------2-|-(2)------(2)-2-2-|
|--------2--2-(2)-x---|------------------|
|---------------------|------------------|
|-0--0-0--------------|------------------|


  E              A5            G5
  E E E E E. S E E   +E  E S S E +Q   S E.
|------------------|-----------------------|
|-0----------------|-----------------------|
|-1--------------9-|-(9)---9-9-7-(7)--7-7--|
|----------------7-|-(7)---7-7-5-(5)--5-5--|
|------------------|-----0-----------------|
|---0-0-0-0--0-----|-----------------------|


  E5             D5             A    E5             A5           G5
  E E E E E. S E E   +H.      S E.   E E E E E. S E E   +Q   S S E +H
|------------------|---------------|------------------|-------------------||
|------------------|------------2--|------------------|-------------------||
|-4---4---4--4---2-|-(2)--------2--|-4---4---4--4---9-|-(9)--9-9-7-(7)----||
|-2---2---2--2---0-|-(0)--------2--|-2---2---2--2---7-|-(7)--7-7-5-(5)----||
|------------------|---------------|------------------|-------------------||
|---0---0----------|---------------|---0---0----------|-------------------||


 Chorus
  E  A5  E5   G5           A               E  A5  E5   A5       G5
  Q  E E Q  E E   +H     E S +S  +S  S E   Q  E E Q  E E   +Q   E E +Q   Q
|-------------3-|-(3)----3---------------|---------------|-------------------|
|-0-----------3-|-(3)----3-2-(2)-(2)p0---|-0-------------|-------------------|
|-1--2---4--4---|----------2-(2)-(2)p0---|-1--2---4--4---|------0-0-(0)--0---|
|-2--2---2--2---|----------------------2-|-2--2---2--2-2-|-(2)--0-0-(0)--0---|
|---------------|------------------------|-------------0-|-(0)---------------|
|------0--------|------------------------|------0--------|-------------------|


  E  A5  E5   G5       D5             E  A5  E5   A5          G5
  Q  E E Q  E E   +Q   Q   Q    Q     Q  E E Q  E E   +E  E E E +Q   +S  E.
|-------------3-|-(3)--0--(0)--(0)--|---------------|------------------------||
|-0-----------3-|-(3)------3---(3)--|-0-------------|------------------------||
|-1--2---4--4---|---------------2---|-1--2---4--4-2-|-(2)-2---0-(0)--(0)-0---||
|-2--2---2--2---|-------------------|-2--2---2--2-2-|-(2)-2---0-(0)--(0)-0---||
|---------------|-------------------|-------------0-|-(0)-0-3----------------||
|------0--------|-------------------|------0--------|------------------------||


 Bridge
  C                        D       C                        D
   W           +H      +E   Q.      W           +H      +E   Q.
|-----------|--------------------|-----------|---------------------|
|--8--------|--(8)-----(8)-10----|--8--------|--(8)-----(8)-10-----|
|--9--------|--(9)-----(9)-11----|--9--------|--(9)-----(9)-11-----|
|-10--------|-(10)----(10)-12----|-10--------|-(10)----(10)-12-----|
|-----------|--------------------|-----------|---------------------|
|-----------|--------------------|-----------|---------------------|


  Cmaj7                    D       C
  Gtr I
                                    \3
   W           +H      +E   Q.      W
|--7--------|--(7)-----(7)-------|----------------||
|--8--------|--(8)-----(8)-10----|--8-------------||
|--9--------|--(9)-----(9)-11----|--9-------------||
|-10--------|-(10)----(10)-12----|-10-------------||
|-----------|--------------------|----------------||
|-----------|--------------------|----------------||
|
| Gtr III
|  W            W                   H     Q  E  E
|-----------|--------------------|----------------||
|-----------|--------------------|-------------12-||
|-----------|--------------------|----------------||
|-----------|--------------------|----------------||
|-----------|--------------------|----------------||
|-----------|--------------------|----------------||


 Guitar Solo - Warren
  E     A5   E5        G5                        A
    Q    E E  Q   E     E   +H               E    S +S  +S   S E
|-----------------------3-|-(3)--------------3----------------------|
|---0-------------------3-|-(3)--------------3----2-(2)-(2)p=0------|
|---1----2----4---4-------|-----------------------2-(2)-(2)p=0------|
|---2----2----2---2-------|------------------------------------2----|
|-------------------------|-----------------------------------------|
|----------0--------------|-----------------------------------------|
|
|  +Q    Q    Q   S  S  E    S  S  E S  S E  S S  S  S   S   S S  S
|-------------------------|-----------------------------------------|
|-(12)--15----------------|-----------------------------------------|
|------------14--12h14p12-|-11h12p11-9h11p9-11p9--------------------|
|-------------------------|----------------------12p11--12--11-9-11-|
|-------------------------|-----------------------------------------|
|-------------------------|-----------------------------------------|


  E             A5          E5             A5
  Q             E    E      Q          E    E
|-------------------------------------------------------|
|-0-----------------------------------------------------|
|-1-------------2-----------4----------4----------------|
|-2-------------2-----------2----------2----2-----------|
|-------------------------------------------0-----------|
|--------------------0----------------------------------|
|
| |-----6-----| |----6----| |---6---|  |------6-------|
| S S  S S S  S E  S S S  S S S S S E  E S  S     +S  S
|-----------------------------------------------------7-|
|-----------------------------------8-10-8-10b11-(10)---|
|-------------------------------7h9---------------------|
|-7-9----7-----------7------7h9-------------------------|
|-----10---9-10-9-10---9-10-----------------------------|
|-------------------------------------------------------|


                G5
  +Q             E     E     +Q            Q
|------------------------------------------------------|
|------------------------------------------------------|
|----------------0-----0-----(0)-----------0-----------|
|-(2)------------0-----0-----(0)-----------0-----------|
|-(0)--------------------------------------------------|
|------------------------------------------------------|
|
|  |----6-----|  |----6----|  |----6-----| |----6----|
|  S S S S  S S  S S S S S S  S  S S S S S S S S S S S
|-10p7-9p7----7----------------------------------------|
|----------10---10p8---8---8p=7----7-------------------|
|--------------------9---9-------9---9-7-9-----7-9p7---|
|------------------------------------------7h9-------9-|
|------------------------------------------------------|
|------------------------------------------------------|


  E               A5              E5                   G5
  Q                 E          E    Q    E               E
|--------------------------------------------------------3---------|
|-0------------------------------------------------------3---------|
|-1-----------------2---------------4----4-------------------------|
|-2-----------------2---------------2----2-------------------------|
|------------------------------------------------------------------|
|------------------------------0-----------------------------------|
|
|                                   ~~~~
|                                        |----------6-----------|
| S S  S  S  a     +E   a     +E   +Q    S  S  S  a     +S   S  S
|-----12--------------------------------12---------------------12--|
|--------12-15b17-(15)-15b17-(15)-(15)-----15-12------------12-----|
|------------------------------------------------14b15-(14)--------|
|-7s9--------------------------------------------------------------|
|------------------------------------------------------------------|
|------------------------------------------------------------------|


                             D5
  +Q                          Q                         Q                 Q
|-(3)-------------------------0------------------------(0)---------------(0)----------------|
|-(3)---------------------------------------------------3----------------(3)----------------|
|-------------------------------------------------------------------------2-----------------|
|-------------------------------------------------------------------------------------------|
|-------------------------------------------------------------------------------------------|
|-------------------------------------------------------------------------------------------|
|
|  |----------6-----------|   |----------6-----------|  |------6-------|  |-------6-------|
|  S   S  S  S  S  a     +S   S  a     +S   S  S  S  S  S  S  S  S  S  S  S   S  S  S  S  S
|-------------------------------------------------------------------------------------------|
|-15--12----15-12------------12------------12-----------------------------------------------|
|--------14-------14b15-(14)----14b15-(14)----12-----------------------------------------12-|
|------------------------------------------------14-12-----------------------------12h14----|
|------------------------------------------------------14S12-10-12-10----10--12S14----------|
|---------------------------------------------------------------------12--------------------|


        E                      A5     E5       A5
          Q                      E  E Q   E     E
|----------------------------------------------------|
|---------0------------------------------------------|
|---------1----------------------2----4---4-----2----|
|---------2----------------------2----2---2-----2----|
|-----------------------------------------------0----|
|-----------------------------------0----------------|
|
|         |-----6------|
|  a     +E   S  S  S  S  a     +H        S  S  S  S
|---------------------12-17b19-(17)------15-12-------|
|------------------12--------------------------15-12-|
|-14b16-(14)-12-14-----------------------------------|
|----------------------------------------------------|
|----------------------------------------------------|
|----------------------------------------------------|


                        G5
  +E         E     E     E    +Q           +S     E.
|----------------------------------------------------------------------------||
|----------------------------------------------------------------------------||
|-(2)--------2-----------0----(0)----------(0)----0--------------------------||
|-(2)--------2-----------0----(0)----------(0)----0--------------------------||
|-(0)--------0-----3---------------------------------------------------------||
|----------------------------------------------------------------------------||
|
|  |--3---|                                 |--------------6--------------|
|  S   S  S  S  S  S  S  S  S  S   S  S  S  S   S     S     +S   +S      +S
|----------------------------------------------------------------------------||
|--------------12------------------------------------------------------------||
|-15--14-12-14----12---------------------------------------------------------||
|--------------------14-12---------------------------------------------------||
|--------------------------14S12--10-12-10-12--10----12b14-(12)-(12)b14-(12)-||
|----------------------------------------------------------------------------||


  E         A5    E5   G5                    D5
   Q         E  E Q  E E   +Q         Q       Q        Q
|----------------------3-|-(3)--------0------(0)------(0)----------|
|--0-------------------3-|-(3)----------------3-------(3)----------|
|--1---------2----4--4---|-----------------------------2-----------|
|--2---------2----2--2---|-----------------------------------------|
|------------------------|-----------------------------------------|
|---------------0--------|-----------------------------------------|
|
|  Q   a    +H.            +Q    a   +E  S S  S S S S  E  a    +E
|------------------------|-----------------------------------------|
|------7b9==(7)----------|-(7)r--7b9-(7)---------------------------|
|------------------------|---------------7p5--7p5------5--7b9==(7)-|
|------------------------|------------------------7p5--------------|
|-10\--------------------|-----------------------------------------|
|------------------------|-----------------------------------------|


  E5   A5       E5               A5
   Q    E   E    Q            E  E
|----------------------------------||
|--0-------------------------------||
|--1----2--------4------------4--2-||
|--2----2--------2------------2--2-||
|--------------------------------0-||
|-----------0----------------------||
|
|                |----5----|
| +Q   +E.    S +S  S S  S S +Q
|----------------------------------||
|----------------------------------||
|-(7)--(7)r---7-(7)h9p7------------||
|-----------------------10p9-(9)---||
|----------------------------------||
|----------------------------------||


 Interlude
  C                                                         D
  Gtr I
   W                                       +H           +E   Q.
|-------------------------------------|-----------------------------------|
|--8----------------------------------|----(8)----------(8)-10------------|
|--9----------------------------------|----(9)----------(9)-11------------|
|-10----------------------------------|---(10)---------(10)-12------------|
|-------------------------------------|-----------------------------------|
|-------------------------------------|-----------------------------------|
|
| Gtr III
|                                  ~
|  |---6----| |----6-----|
|  S S S  S E S  S S S S S S S S S Q    a   E  E S S E   E.     S S S +E
|-------------------------------------|-----------------------------------|
|-------------------------------------|------------------5------5---7-(7)-|
|-------------------------------------|--------5-7-5-----5------5---7-(7)-|
|--7h9p7----7-------------------------|--------5-7-5-7--------------------|
|--------10---9-10-7-9-5-7-3-5-2------|-5S==7-----------------------------|
|--------------------------------5-3--|-----------------------------------|


  C
   W
|------------------------------|
|--8---------------------------|
|--9---------------------------|
|-10---------------------------|
|------------------------------|
|------------------------------|
|
|     |-3-|
| +E  S S S S S S S E S S E  E
|---------------------------20-|
|-(7)--------------------------|
|-(7)-7p5---5-8-7-5-7-5-7Sx----|
|---------7--------------------|
|------------------------------|
|------------------------------|


                                 D
      +H                  +E      Q.
|--------------------------------------------------||
|-----(8)-----------------(8)----10----------------||
|-----(9)-----------------(9)----11----------------||
|----(10)----------------(10)----12----------------||
|--------------------------------------------------||
|--------------------------------------------------||
|
|  a   E   S  S  +S   E.   S   E      S  +E   S  S
|-19h=20--19---------17----------------------------||
|------------20-(20)------20---------17-(17)-20s22-||
|-----------------------------19-------------------||
|--------------------------------------------------||
|--------------------------------------------------||
|--------------------------------------------------||


 Chorus
  E  A5  E5   G5           A               E  A   E5   A5       G5
  Q  E E Q  E E   +H     E S +S  +S  S E   Q  E E Q  E E   +Q   E E +Q   Q
|-------------3-|-(3)----3---------------|---------------|-------------------|
|-0-----------3-|-(3)----3-2-(2)-(2)p0---|-0-------------|-------------------|
|-1--2---4--4---|----------2-(2)-(2)p0---|-1--2---4--4---|------0-0-(0)--0---|
|-2--2---2--2---|----------------------2-|-2--2---2--2-2-|-(2)--0-0-(0)--0---|
|---------------|------------------------|-------------0-|-(0)---------------|
|------0--------|------------------------|------0--------|-------------------|


  E  A5  E5   G5       D5             E  A5  E5   A5
  Q  E E Q  E E   +Q   Q   Q    Q     Q  E E Q  E E   +E  E E E +Q   Q
|-------------3-|-(3)--0--(0)--(0)--|---------------|---------3-(3)--3---||
|-0-----------3-|-(3)------3---(3)--|-0-------------|---------3-(3)--3---||
|-1--2---4--4---|---------------2---|-1--2---4--4-2-|-(2)-2--------------||
|-2--2---2--2---|-------------------|-2--2---2--2-2-|-(2)-2--------------||
|---------------|-------------------|-------------0-|-(0)-0-3------------||
|------0--------|-------------------|------0--------|--------------------||


 Out-Chorus
  E          A5          E5             G5
  Q           E     E     Q           E  E
|----------------------------------------3----|
|-0--------------------------------------3----|
|-1-----------2-----------4-----------4-------|
|-2-----------2-----------2-----------2-------|
|---------------------------------------------|
|-------------------0-------------------------|
|
| Gtr III
| S  S  S  S  S  S  S  S  S  S  S  S  E  S  S
|---------------------------------------------|
|---------------------------------------------|
|---------------------------14-14-14-14-14-12-|
|------------------------12-------------------|
|---------10-12-10-12S14----------------------|
|---10S12-------------------------------------|


               A                        E     A5  E5                  A5
  +H      E     S +S  +S   S  E           Q   E E  Q                E  E
|-(3)-----3------------------------|-----------------------------------------|
|-(3)-----3-----2-(2)-(2)p=0-------|------0----------------------------------|
|---------------2-(2)-(2)p=0-------|------1---2----4----------------4--------|
|-----------------------------2----|------2---2----2----------------2--2-----|
|----------------------------------|-----------------------------------0-----|
|----------------------------------|------------0----------------------------|
|
|  ~~~
|                                                  |--3--|
|  H      S  S  S  S   S   S  S  S    a  +H        S  S  S  a  +E   E  S  S
|--------15-12---------------------|--------------12-------------------------|
|--------------15-12--12-----------|-15-(15)---------15-12-------------------|
|-------------------------14-12----|-----------------------14-(14)-12-14-12--|
|-14----------------------------14-|-----------------------------------------|
|----------------------------------|-----------------------------------------|
|----------------------------------|-----------------------------------------|


                G5                  E           A5       E5        G5
   +Q            E     E +Q    Q     Q           E  E     Q   E     E
|---------------------------------|---------------------------------3-|
|---------------------------------|--0------------------------------3-|
|----------------0-----0-(0)---0--|--1-----------2--------4---4-------|
|--(2)-----------0-----0-(0)---0--|--2-----------2--------2---2-------|
|--(0)----------------------------|-----------------------------------|
|---------------------------------|-----------------0-----------------|
|
|  +S   S  S  S  S  S  E  Q    Q     S  S  S  S  E  S  S  Q   S  S  E
|---------------------------------|-------------------15--------------|
|---------------------------------|-------------15-15----15--14-14-14-|
|-(12)----------------------------|-12----14S16-----------------------|
|------14-12----14-12---------14--|----14-----------------------------|
|------------14-------14-10-------|-----------------------------------|
|---------------------------------|-----------------------------------|


         D5
  +Q      Q         Q            Q
|-(3)-----0--------(0)----------(0)----------|
|-(3)---------------3-----------(3)----------|
|--------------------------------2-----------|
|--------------------------------------------|
|--------------------------------------------|
|--------------------------------------------|
|
|  E   E  E  S  S  +S   S  S  S  S   S  S  S
|--------------------------------------------|
|-12-----------------------------------------|
|-----12-12----12-(12)-----------------------|
|-----------14---------14-12-----------------|
|----------------------------14S12--10-12S14-|
|--------------------------------------------|


  E        A5      E5                         A5
   Q         E   E  Q                 E        E
|------------------------------------------------------|
|--0---------------------------------------------------|
|--1---------2------4-----------------4--------2-------|
|--2---------2------2-----------------2--------2-------|
|----------------------------------------------0-------|
|----------------0-------------------------------------|
|
|                   |------6-------|  |------6-------|
|  E  S  S  +E   E  S  S  S  S  S  S  S  S  S  S  S  S
|------------------------------------------------------|
|---------------------------12-------15p12h15-12----12-|
|---------------12-14-12-14----15-14-------------14----|
|----12-14-(14)----------------------------------------|
|-14---------------------------------------------------|
|------------------------------------------------------|


                           G5
  +E      E        E        E       +Q                 +S    E.
|----------------------------------------------------------------------------|
|----------------------------------------------------------------------------|
|-(2)-----2-----------------0-------(0)----------------(0)---0---------------|
|-(2)-----2-----------------0-------(0)----------------(0)---0---------------|
|-(0)-----0--------3---------------------------------------------------------|
|----------------------------------------------------------------------------|
|
|  |-----6------|  |------6-------|  |-------6-------|  |--------6--------|
|  E   S  S  S  S  S  S  S  S  S  S  S   S  S  S  S  S  S  S     S  S  S  S
|--------12------------------------------------------------------------------|
|-15--12----15-12-15-12----12------------------------------------------------|
|-----------------------15----15-14-12-----14-12-------------------12h14p12--|
|---------------------------------------14-------14-12-14p12h===14-----------|
|----------------------------------------------------------------------------|
|----------------------------------------------------------------------------|


  E     A5         E5      G5
  Q      E      E    Q   E E
|--------------------------3-|
|-0------------------------3-|
|-1------2-----------4---4---|
|-2------2-----------2---2---|
|----------------------------|
|---------------0------------|
|
| E.  S  E  a  +E   +H
|-------19-21-(21)-(21)------|
|----20----------------------|
|----------------------------|
|----------------------------|
|----------------------------|
|----------------------------|


                   A
   +H      E        S    +S     +S     S     E
|--(3)-----3-----------------------------------------|
|--(3)-----3--------2----(2)----(2)p===0-------------|
|-------------------2----(2)----(2)p===0-------------|
|--------------------------------------------2-------|
|----------------------------------------------------|
|----------------------------------------------------|
|
|          |--------6---------|  |--------6--------|
|  +H      S  S  S  S  S      S  S   S    S  S  S  S
|-(21)-------21-------19------------21---------19----|
|---------22----22-20--------20-22-------22-20----20-|
|----------------------------------------------------|
|----------------------------------------------------|
|----------------------------------------------------|
|----------------------------------------------------|


  E                 A5                  E5                            A5
   Q                 E        E          Q                 E          E
|--------------------------------------------------------------------------------|
|--0-----------------------------------------------------------------------------|
|--1-----------------2-------------------4-----------------4---------------------|
|--2-----------------2-------------------2-----------------2----------2----------|
|---------------------------------------------------------------------0----------|
|-----------------------------0--------------------------------------------------|
|
|  |------6-------|  |-------6--------|  |------6-------|  |---------7---------|
|  S  S  S  S  S  S  S  S  S  S  +S   S  S  S  S  S  S  S  S  S  S  S    S  S  S
|-19-----------------------------------------------------------------------------|
|----20p19-20p19-------19---------------17p15p14---------------------------------|
|----------------19S18----18-19-(19)-18----------16-14-16-12-14-12-11---12-11----|
|-----------------------------------------------------------------------------12-|
|--------------------------------------------------------------------------------|
|--------------------------------------------------------------------------------|


                     G5
  +Q                  E     E    +Q                 Q
|--------------------------------------------------------|
|--------------------------------------------------------|
|---------------------0-----0----(0)----------------0----|
|-(2)-----------------0-----0----(0)----------------0----|
|-(0)----------------------------------------------------|
|--------------------------------------------------------|
|
|  |-------6-------|              |------6-------|
|  S   S  S  S  S  S  S  S  S  S  S   S  S  S S  S  Q
|--------------------------------------------------------|
|--------------------------------------------------------|
|--------------------------------------------------------|
|-14--12-11-12-11----11----------------------------------|
|-----------------14----14-12-10-10--------10-9----10\---|
|------------------------------------10-12------12-------|


  E       A5  E5          G5              D5
  Q       E E  Q      E   E     +Q         Q    Q    Q
|-------------------------3---|-(3)--------0---(0)--(0)-----|
|-0-----------------------3---|-(3)-------------3---(3)-----|
|-1-------2----4------4-------|----------------------2------|
|-2-------2----2------2-------|-----------------------------|
|-----------------------------|-----------------------------|
|-----------0-----------------|-----------------------------|
|
| E a +Q.     +E  S S S S S S    S  S S S +Q   +Q   +S  S E
|-----------------------------|-----------------------------|
|-----------------------------|---------7-(7)--(7)--(7)-----|
|---9-(9)-----(9)-7h9-9-9-9-9-|--9--7-------------------9-9-|
|-----------------------------|-------9---------------------|
|-----------------------------|-----------------------------|
|-----------------------------|-----------------------------|


  E  A5      E5        A5              G5
  Q  E   E   Q     E   E   +E    E E   E   +Q   Q
|------------------------|-------------3---(3)--3-----*|
|-0----------------------|-------------3---(3)--3-----*|
|-1--2-------4-----4---2-|-(2)---2--------------------*|
|-2--2-------2-----2---2-|-(2)---2--------------------*|
|----------------------0-|-(0)---0-3------------------*|
|--------0---------------|----------------------------*|
|
| Q  S S S S S S E S S E    S  S E S S S S  Q   S S E
|------------------------|---------------0------------*|
|------------------------|---------------0--3---3-3---*|
|-9--7-----------7-7-7-6-|--2--4-2----------2---2-2---*|
|------9S7-5-7S9---------|--2--4-2--------------------*|
|------------------------|----------------------------*|
|------------------------|---------3-3-0------------0-*|


Duration Legend
---------------
W - whole; H - half; Q - quarter; E - 8th; S - 16th; T - 32nd; X - 64th; a - acciaccatura
+ - note tied to previous; . - note dotted; .. - note double dotted
Uncapitalized letters represent notes that are staccato (1/2 duration)
Irregular groupings are notated above the duration line
Duration letters will always appear directly above the note/fret number it represents the
duration for.  Duration letters with no fret number below them represent rests.  Multi-
bar rests are notated in the form Wxn, where n is the number of bars to rest for.  Low
melody durations appear below the staff

Tablature Legend
----------------
 h   - hammer-on
 p   - pull-off
 b   - bend
 pb  - pre-bend
 r   - bend release (if no number after the r, then release immediately)
 /\  - slide into or out of (from/to "nowhere")
 s   - legato slide
 S   - shift slide
 - natural harmonic
[n]  - artificial harmonic
n(n) - tapped harmonic
 ~   - vibrato
 tr  - trill
 T   - tap
 TP  - trem. picking
 PM  - palm muting
\n/  - tremolo bar dip; n = amount to dip
 \n  - tremolo bar down
 n/  - tremolo bar up
/n\  - tremolo bar inverted dip
 =   - hold bend; also acts as connecting device for hammers/pulls
 <> - volume swell (louder/softer)
 x   - on rhythm slash represents muted slash
 o   - on rhythm slash represents single note slash

Misc Legend
-----------
 |  - bar
||  - double bar
||o - repeat start
o|| - repeat end
*|  - double bar (ending)
 :  - bar (freetime)
 $  - Segno
 &  - Coda
Tempo markers -  = BPM(8/16=s8/s16), where s8 = swing 8ths, s16 = swing 16ths
Добавлено: 26.10.2015
Другие материалы по этой песне:

Страница создана 22.02.2012
http://primanota.ru/ratt/no-surprise-chords.htm
Привет, Гость.
Предлагаем пройти революционный курс по гитаре.
Подарок от PrimaNota.Ru, забирай!