PrimaNota.ru - самый крупный в мире бесплатный архив песенных текстов, аккордов, табулатур и нот


Rats - Rats Revenge Part 1 And 2 - бас-таба, видео

Регистрация Запомнить меня
Войти через:  Facebook Google Twitter Vk Yandex Mail.ru

Rats - Rats Revenge Part 1 And 2 - бас-таба, видео

Печатать
Просмотров: 49
Уроки эстрадного вокала в Санкт-Петербурге
-------------------------------------------------------------------------------
                    Rat's Revenge Part 1 and 2 - The Rats
-------------------------------------------------------------------------------
Tabbed by:darbycrashed
E-mail:cyborgmummy@gmail.com

Tuning:EADG

Main Verse for both songs

G|------------------|
D|------------------|
A|-4-4--------------|
E|-----2-2-4-4-2-2--|

Chorus for both songs

G|---------|
D|---------|
A|44-------|
E|--224422-|

Solo for part 1 only at 2:10

G|--------------|
D|--------------|
A|4-44----------|
E|----2-4-4-2-2-|

Awesome underrated song. 
Добавлено: 20.12.2015
Другие материалы по этой песне:
  • Аккорды и текст

Страница создана 20.12.2015
http://primanota.ru/rats/rats-revenge-part-1-and-2-chords.htm
Привет, Гость.
Предлагаем пройти революционный курс по гитаре.
Подарок от PrimaNota.Ru, забирай!