PrimaNota.ru - самый крупный в мире бесплатный архив песенных текстов, аккордов, табулатур и нот


Ratfist - Fist Of The Rat - таба, видео

Регистрация Запомнить меня
Войти через:  Facebook Google Twitter Vk Yandex Mail.ru

Ratfist - Fist Of The Rat - таба, видео

Печатать
Просмотров: 75
Fist of the rat

Ratfist 1974

/ = slide
~ = pull off
^ = hammer on

Main riff:

---------------------------------------------------------------------------
---------------------------------------------------------------------------
------1O---9----1O---9--1O/9----9/1O------1O---9---------------------------
------1O---9----1O---9--1O/9----9/1O------1O---9-------3-2-----------------
-------8---7-----8---7---8/7----7/-8-------8---7-----------3-2-------------
--O-O----O--O-O----O----------8-------O-O----O---O-O-O----------3-2~3~2~O--


---------------------------------------------------------------------------
---------------------------------------------------------------------------
------1O---9----1O---9--1O/9----9/1O------1O---9---------------------------
------1O---9----1O---9--1O/9----9/1O------1O---9---------------------------
-------8---7-----8---7---8/7----7/-8-------8---7---------------------------
--O-O----O--O-O----O----------8-------O-----O---O-O-O-----3-2-O-2-3-2-O----


Verse:

  E         G         B         E         G         B

---------------------------------------------------------------------------
---------------------------------------------------------------------------
----------------------4-----------------------------4----------------------
--2---------5---------4---------2---------5---------4----------------------
--2---------5---------2---------2---------5---------2----------------------
--O---------3-------------------O---------3--------------------------------


---------------------------------------------------------------------------
---------------------------------------------------------------------------
------1O---9----1O---9--1O/9----9/1O------1O---9---------------------------
------10---9----1O---9--1O/9----9/1O------1O---9---------------------------
-------8---7-----8---7---8/7----7/-8-------8---7---------------------------
--O-O----O--O-O----O----------8-------O-O----O---O-O-O-----3-2-0-2-3-2-O---


Bridge:



      C         G         E         B         F         G         A

||-----------------------------------------------------------------------||
||-----------------------------------------------------------------------||
||.---5-----------------------------4-----------------------------2-----.||
||.---5---------5---------2---------4---------3---------5---------2-----.||
||----3---------5---------2---------2---------3---------5---------0------||
||--------------3---------O-------------------1---------3----------------||


Chorus:

     F         E         D#         

||-----------------------------------------------------------------------||
||-----------------------------------------------------------------------||
||.--1O--------9---------8------1O-----9------1O-----9---1O/9---9/1O----.||
||.--1O--------9---------8------1O-----9------1O-----9---1O/9---9/1O----.||
||----8--------7---------6-------8-----7-------8-----7----8/7---7/-8-----||
||--------------------------O-O-----O-----O-O-----O-----------8----------||



Solo riff:


||-----------------------------------------------------------------------||
||-----------------------------------------------------------------------||
||.---------------------------------------------------------------------.||
||.------3--2-------3--2--3/2--2-3----------3--2-------3--2--3/2--2-3---.||
||-------3--2-------3--2--3/2--2-3----------3--2-------3--2--3/2--2-3----||
||--O-O--1--O--O-O--1--O--1/O--O-1-----O-O--1--O--O-O--1--O--1/O--O-1----||



Those are the different parts, you'll have to figure out the form yourself.
>From the album Cheesy Rider 1974. If anyone who reads this has the album and is 
willing to sell it, please contact me at bierball@netscape.net. 


     
Добавлено: 24.06.2013
Другие материалы по этой песне:
  • Аккорды и текст

Страница создана 24.06.2013
http://primanota.ru/ratfist/fist-of-the-rat-chords.htm
Привет, Гость.
Предлагаем пройти революционный курс по гитаре.
Подарок от PrimaNota.Ru, забирай!