PrimaNota.ru - самый крупный в мире бесплатный архив песенных текстов, аккордов, табулатур и нот


Ratatat - Rome - таба, видео

Регистрация Запомнить меня
Войти через:  Facebook Google Twitter Vk Yandex Mail.ru

Ratatat - Rome - таба, видео

Печатать
Просмотров: 65
-------------------------------------------------------------------------------
                            ROME - Ratatat
-------------------------------------------------------------------------------
Tabbed by: Kakihara2046
E-mail:

Tuning: EADGBE

Solo - starts at 3:40

e|----------------------------------------------------------------------|
B|----------------------------------------------------------------------|
G|---------5h7---------5h7---------5h7---------------------2---2--------|
D|-7---5h7-----7---5h7-----7---5h7-----7-5-3-5---------3h5-------5p3-5p3|
A|---------------------------------------------5---3h5------------------|
E|----------------------------------------------------------------------|

e|----------------------------------------------------|
B|----------------------------------------------------|
G|-----2-----------------------------------------2----|
D|-3h5---5-3-2-3-----2h3h5-3-2-2---2h3h5-3---3h5---5-3|
A|---------------4------------------------------------|
E|----------------------------------------------------|


Enjoy !

************************************

| /   slide up
| \   slide down
| h   hammer-on
| p   pull-off
| ~   vibrato
| +   harmonic
| x   Mute note
| b   Bend
| pb  Pre-bend
| br  Bend release
| pbr Pre-bend release
| brb Bend release bend

************************************
Добавлено: 25.11.2015
Другие материалы по этой песне:
  • Аккорды и текст

Страница создана 25.11.2015
http://primanota.ru/ratatat/rome-chords.htm
Привет, Гость.
Предлагаем пройти революционный курс по гитаре.
Подарок от PrimaNota.Ru, забирай!