PrimaNota.ru - самый крупный в мире бесплатный архив песенных текстов, аккордов, табулатур и нот


Ratatat - Mi Viejo - таба, видео

Регистрация Запомнить меня
Войти через:  Facebook Google Twitter Vk Yandex Mail.ru

Ratatat - Mi Viejo - таба, видео

Печатать
Просмотров: 138
-------------------------------------------------------------------------------
                             Mi Viejo - Ratatat
-------------------------------------------------------------------------------
Tabbed by: Vasko
Email: druregon@gmail.com

Tuning: Standard

It's my first tab, so please bear with me, if it's not right, although it 
sounds good me. I hope you enjoy it :)


e|---------------------------------------------------------------------------|
B|---------------------------------------------------------------------------|
G|-------------7---------------7----7-5--8-75----5----5----------------------|
D|-5-8-5---5-8-----5-8-5---5-8---------------------8-----8--87--8------------|
A|----------------------------------------------------------------8--868/11--|
E|---------------------------------------------------------------------------|

The riff then changes to the following and is repeat untill the end:

e|---------------------------------------------------------------------------|
B|---------------------------------------------------------------------------|
G|-------------7---------------7----7-5--8-75----5----5----------------------|
D|-5-8-5---5-8-----5-8-5-8-5-8---------------------8-----8--87--8------------|
A|----------------------------------------------------------------8--868\11--|
E|---------------------------------------------------------------------------|

Guitar 2 plays the following every now and then:

e|----15-------------------15------------------------------------------------|
B|------------11-------------------11----------------------------------------|
G|---------------------------------------------------------------------------|
D|---------------------------------------------------------------------------|
A|---------------------------------------------------------------------------|
E|---------------------------------------------------------------------------|



************************************

| /   slide up
| \   slide down
| h   hammer-on
| p   pull-off
| ~   vibrato
| +   harmonic
| x   Mute note
| b   Bend
| pb  Pre-bend
| br  Bend release
| pbr Pre-bend release
| brb Bend release bend

************************************
Добавлено: 15.04.2012
Другие материалы по этой песне:
  • Аккорды и текст

Страница создана 15.04.2012
http://primanota.ru/ratatat/mi-viejo-chords.htm
Привет, Гость.
Предлагаем пройти революционный курс по гитаре.
Подарок от PrimaNota.Ru, забирай!