PrimaNota.ru - самый крупный в мире бесплатный архив песенных текстов, аккордов, табулатур и нот


Rata Blanca - El Beso De La Bruja - текст песни, таба, видео

Регистрация Запомнить меня
Войти через:  Facebook Google Twitter Vk Yandex Mail.ru

Rata Blanca - El Beso De La Bruja - текст песни, таба, видео

Печатать
Просмотров: 156
Авторы музыки: Walter Giardino
Авторы текста: Walter Giardino, D.R.
Tab pedro.guitarrista@hotmail.com

Solo:

e|----------------------10-------10-11----10-11-14s15p10--------------------|
b|---10-11-13--10-11-13----11-13-------13----------------13-11-10-13-11-----|
g|-12-------------------------------------------------------------------12~-|
d|--------------------------------------------------------------------------|
a|--------------------------------------------------------------------------|
e|--------------------------------------------------------------------------|
  (x4)


e|-t15p10h11-t15p10h11-t15p10h11-t15p10h11-t15-------------------------------|
b|---------------------------------------------------------------------------|
g|---------------------------------------------t13p10h11-t13p10h11-t13p10h11-|
d|---------------------------------------------------------------------------|
a|---------------------------------------------------------------------------|
e|---------------------------------------------------------------------------|

e|--------------t13p10h11-t13p10h11-t13p10h11-t13p10h11-13-------------------|
b|-t13p10h11-t13-------------------------------------------t11p8h10-t11p8h10-|
g|---------------------------------------------------------------------------|
d|---------------------------------------------------------------------------|
a|---------------------------------------------------------------------------|
e|---------------------------------------------------------------------------|


e|----------------------t11p8h10-t11p8h10-t11p8h10-t11p8h10-t11-------------|
b|-t11p8h10-t11p8h10-t11----------------------------------------------------|
g|-------------------------------------------------------------t10p7h8-t10--|
d|--------------------------------------------------------------------------|
a|--------------------------------------------------------------------------|
e|--------------------------------------------------------------------------|


e|--------------------------------------------------------------------------|
b|p7h8-t10p7h8-t10p7h8-t10--t11p8h9t11-t13p10h11t13-t15p11h13t15p11h13t15---|
g|--------------------------------------------------------------------------|
d|--------------------------------------------------------------------------|
a|--------------------------------------------------------------------------|
e|--------------------------------------------------------------------------|


e|--------------------------------------------------------t17p13h15-t17p13--|
b|-p11h13-t15--t16p13h15-t16p13h15-t16p13h15-t16p13h15-t16------------------|
g|--------------------------------------------------------------------------|
d|--------------------------------------------------------------------------|
a|--------------------------------------------------------------------------|
e|--------------------------------------------------------------------------|


e|-h15-t17p13h15-t17p13h15-t17----------------------------------------------|
b|-----------------------------t15p11h13-t15p11h13-t15p11h13-t15p11h13-t15--|
g|--------------------------------------------------------------------------|
d|--------------------------------------------------------------------------|
a|--------------------------------------------------------------------------|
e|--------------------------------------------------------------------------|


e|-t15p11h13-t15p11h13-t15p11h13-t15p11h13-t15------------------------------|
b|--------------------------------------------t13p10h11-t13p10h11-t13p10h11-|
g|--------------------------------------------------------------------------|
d|--------------------------------------------------------------------------|
a|--------------------------------------------------------------------------|
e|--------------------------------------------------------------------------|


e|---------------s14--------------------------------------------------------|
b|-t13p10h11-t13------------------------------------------------------------|
g|--------------------------------------------------------------------------|
d|--------------------------------------------------------------------------|
a|--------------------------------------------------------------------------|
e|--------------------------------------------------------------------------|


Hasta ahi me sé nomás pero está excelente eh!!!(Voten)
Добавлено: 19.06.2012
Другие материалы по этой песне:

Страница создана 25.02.2012
http://primanota.ru/rata-blanca/el-beso-de-la-bruja-chords.htm
Привет, Гость.
Предлагаем пройти революционный курс по гитаре.
Подарок от PrimaNota.Ru, забирай!