PrimaNota.ru - самый крупный в мире бесплатный архив песенных текстов, аккордов, табулатур и нот


Rat Boy - Sign On - таба, видео

Регистрация Запомнить меня
Войти через:  Facebook Google Twitter Vk Yandex Mail.ru

Rat Boy - Sign On - таба, видео

Печатать
Просмотров: 66
-------------------------------------------------------------------------------
                             SIGN ON - Rat Boy
-------------------------------------------------------------------------------
Tabbed by: Rory Greig


Tuning:EADGBe

Guitar Part 1
e|---------------------------------------------------------------------------|
B|--7-5-7-5-7--7--5--5----12-9--12-9--12-9--12--9---9-----12-9--12-9--12-9---|
G|--6-6-6-6-6--6--6--6----10-10-10-10-10-10-10--10--10----10-10-10-10-10-10--|
D|--7-7-7-7-7--7--7--7----12-12-12-12-12-12-12--12--12----12-12-12-12-12-12--|
A|---------------------------------------------------------------------------|
E|---------------------------------------------------------------------------|

e|---------------------------------------------------------------------------|
B|12--9---9-----7-5-7-5-7-5-7--5--5------------------------------------------|
G|10--10--10----6-6-6-6-6-6-6--6--6--X3--------------------------------------|
D|12--12--12----7-7-7-7-7-7-7--7--7------------------------------------------|
A|---------------------------------------------------------------------------|
E|---------------------------------------------------------------------------|

Guitar Part 2 
e|---------------------------------------------------------------------------|
B|------------------------------/12--10------10------10--------/12--10-------|
G|--/11--9------9------9-----------------11------11---------------------11---|
D|----------11-----11-----11-----------------------------12------------------|
A|---------------------------------------------------------------------------|
E|---------------------------------------------------------------------------|

e|---------------------------------------------------------------------------|
B|10------12--10-------------------------------------------------------------|
G|----11----------11---11p9-11p9-11--9---------------X2----------------------|
D|--------------------------------------11--9--------------------------------|
A|---------------------------------------------12----------------------------|
E|---------------------------------------------------------------------------|



************************************

| /   slide up
| \   slide down
| h   hammer-on
| p   pull-off
| ~   vibrato
| +   harmonic
| x   Mute note
| b   Bend
| pb  Pre-bend
| br  Bend release
| pbr Pre-bend release
| brb Bend release bend

************************************
Добавлено: 25.04.2016
Другие материалы по этой песне:
  • Аккорды и текст

Страница создана 25.04.2016
http://primanota.ru/rat-boy/sign-on-chords.htm
Привет, Гость.
Предлагаем пройти революционный курс по гитаре.
Подарок от PrimaNota.Ru, забирай!