PrimaNota.ru - самый крупный в мире бесплатный архив песенных текстов, аккордов, табулатур и нот


Rat Boy - Fake Id - таба, видео

Регистрация Запомнить меня
Войти через:  Facebook Google Twitter Vk Yandex Mail.ru

Rat Boy - Fake Id - таба, видео

Печатать
Просмотров: 58
-------------------------------------------------------------------------------
                             FAKE ID - RATBOY
-------------------------------------------------------------------------------
Tabbed by: Dan Miley
E-mail:

Tuning: Standard 
This is just the main chord sequence throughout the song so yeah...

     E     A     E     B
e|---0-----0-----0---------------|
B|---0-----2-----0-----4---------|
G|---1-----2-----1-----4---------|
D|---2-----2-----2-----4---------|
A|---2-----0-----2-----2---------|
E|---0-----------0---------------|

"He Said Hand Over The Money" 

e|-------------------------------0-0-0-0-0--------------------|
B|----9-9-9-9-9------------------0-0-0-0-0---4-4-4-4-4--------|
G|----9-9-9-9-9------------------1-1-1-1-1---4-4-4-4-4--------|
D|----9-9-9-9-9-----7-7-7-7-7----2-2-2-2-2---4-4-4-4-4--------| x2
A|----7-7-7-7-7-----7-7-7-7-7----2-2-2-2-2---2-2-2-2-2--------|
E|------------------5-5-5-5-5----0-0-0-0-0--------------------|




************************************

| /   slide up
| \   slide down
| h   hammer-on
| p   pull-off
| ~   vibrato
| +   harmonic
| x   Mute note
| b   Bend
| pb  Pre-bend
| br  Bend release
| pbr Pre-bend release
| brb Bend release bend

************************************
Добавлено: 25.04.2016
Вам также может быть интересно:
Другие материалы по этой песне:
  • Аккорды и текст

Страница создана 25.04.2016
http://primanota.ru/rat-boy/fake-id-chords.htm
Привет, Гость.
Предлагаем пройти революционный курс по гитаре.
Подарок от PrimaNota.Ru, забирай!